» » »

Camera Obscura, Number One Son Tabs (ver.1)

Artists:  A B C D E F G H I J K L M N O P Q R S T U V W X Y Z # 

Number One Son Tabs (ver.1)

Camera Obscura Tabs
 Rating:
4.2/5 (5 votes)
Number One Son lessons Tabs too difficult? Try these video lessons and learn fast
                

h = hammer on

p = pull off

/ = slide

~ = let it ring



Intro:

E|-----------------------------------------------------|
B|--5h7p5----------------------------------------------|
G|---------6-6h7p6----------------2-----2h4-2----2~----|
D|------------------9/7/-----2h4-----4--------4--------|
A|-----------------------------------------------------|
E|-----------------------------------------------------|



Chords: A - D


Took a walk in the park for a laugh, we drank sparkling wine
Oh yeah, it was dark, trees could not be identified
The girl you were with, did she have you on your knees?
I shut my mouth, my ears
I don't want to hear you, please

Now you're skipping school, going to listen to records
Wrapped up in mohair dissing your elders
Dip a chocolate finger, take a sip from my cup
Remember what you.re dad said "button your lip"

You've got to toughen up for him
He's the kind who will do you in
I should know that it's no fun
You will never be number one
Number one son

God I've tried to help but I think I just hinder
Ask a better girl could she ever be kinder
Love, unlike lightning, can strike you twice
I don't know much, please take my advice

You've got to toughen up for him
He's the kind who will do you in
I should know that it's no fun
You will never be Number one
Number one son



Strings solo (transcribed for guitar):


E|---------------------------------------------------|
B|---------------------------------------------------|
G|----------7-7--7--6-6--6--4-4--4--6-6--6--2---2~---| (4x)     
D|--7-7--7-------------------------------------------|
A|---------------------------------------------------|
E|---------------------------------------------------|


E|---------------------------------------------------|
B|---------------------------------------------------|
G|----4-6--4-6--4-6~---6-7--6-7--6-7~----------------| (4x)     
D|---------------------------------------------------|
A|---------------------------------------------------|
E|---------------------------------------------------|



End with: A
            
Submit corrections

comments powered by Disqus
↑ Back to top | Camera Obscura Tabs for Number One Son. Lyrics for acoustic guitar and electric guitar. Tablatures and chords are parodies/interpretations of the original songs. You may use it for private study, scholarship, research or language learning purposes only