» » »

Camera Obscura, Let's Get Out Of This Country Tabs (ver.1)

Artists:  A B C D E F G H I J K L M N O P Q R S T U V W X Y Z # 

Let's Get Out Of This Country Tabs (ver.1)

Camera Obscura Tabs
Rating:
0/5 (0 votes)
Let's Get Out Of This Country lessons Tabs too difficult? Try these video lessons and learn fast
                Standard Tuning, capo at 1st fret. Notes and chords relative to capo.

C: x32010
Fmaj7: x33210
G: 320003
Am: x02210
Dm: xx0231

e|------------------------------------||
B|----------------1-------------------||
G|------------0h2---2------0----------||
D|--------0h2----------------2-0------||
A|-3-----------------------------3-0--||
E|------------------------------------|| x3

e|-------------------------------------||
b|-------------------------------------||
g|-------------------------------------||
d|-0-----2-0---------0-----2-0---------||
a|-------------3-0---------------3-0---||
e|-----------------3-----------------3-||


C                     Fmaj7
Let's get out of this country
I'll admit I am bored with me
I drowned my sorrows and slept around
When not in body, at least in mind
G
We'll find a cathedral city
Am                       C       Fmaj7      C       Fmaj7
You can convince me I am prettyyyy

We'll pick berries and recline
Let's hit the road, dear friend of mine
Wave goodbye to our thankless jobs
We'll drive for miles, maybe never turn off
We'll find a cathedral city
You can be handsome, I'll be pretty

G                           Dm
What does this city have to offer me?
Everyone else thinks it's the bee's knees
What does this city have to offer me?
Fmaj7
I just can't see 
             C      Fmaj7      C      Fmaj7
I just can't seeEEeee

C      Fmaj7      C      Fmaj7
G      G

(quieter)
Let's get out of this country
I have been so unhappy
Smell the Jasmine my head was turned
I feel like getting confessional
We'll find a cathedral city you can convince me I am pretty

What does this city have to offer me?
Everyone else thinks it's the bee's knees
What does this city have to offer me?
I just can't see
I just can't see
            
Submit corrections

comments powered by Disqus
↑ Back to top | Camera Obscura Tabs for Let's Get Out Of This Country. Lyrics for acoustic guitar and electric guitar. Tablatures and chords are parodies/interpretations of the original songs. You may use it for private study, scholarship, research or language learning purposes only