» » »

Camera Obscura, Before You Cry Tabs (ver.1)

Artists:  A B C D E F G H I J K L M N O P Q R S T U V W X Y Z # 

Before You Cry Tabs (ver.1)

Camera Obscura Tabs
 Rating:
4.3/5 (6 votes)
Before You Cry lessons Tabs too difficult? Try these video lessons and learn fast
                



The originally transcribed intro riff is shown first. It didn't sound
exactly correct to me so I wrote out an alternate version after it.

Intro (ver1):
e|--------0h2-|-2-2-3-2-0--0h2-|-2-2-3-2-0-0h2---|-----------0-2-3-|
B|----3-------|----------------|---------------3-|-3-2-3-2-3-------|
G|--2---2-----|----------------|-----------------|-----------------|
D|------------|----------------|-----------------|-----------------|
A|------------|----------------|-----------------|-----------------|
E|------------|----------------|-----------------|-----------------|

Intro (ver2):
e|------------|------------------|---------------------|------------------|
B|------------|------------------|---------------------|------------------|
G|-------9/11-|11-11-12-11-9-9/11|11-11-12-11-9-9/11--7|7---7---7--6--7--9|
D|7-7/9-7-----|------------------|---------------------|-9---9----7--7--9-|
A|------------|------------------|---------------------|------------------|
E|------------|------------------|---------------------|------------------|

[verse]
             D
No sense, no style
                       Bm
Said I loved you for a little while
               G                A
When you cried no, high speed became go slow
               D
Come back this time
                            Bm
Wishful thinking's going to make you mine
              G
Push turns to shove
            A        
Got no more room for love


[chorus]
           Bm
I hope you hear me
                G
Can't stand you next to me
              Bm
Get lost, goodbye
             A
I'll smile before you cry

[interlude]
E||--12h14-12h14-12s10-|--9h10-9h10-9s7-|--12h14-12h14-12s10-|--9-10-12-14-|
B||--------------------|----------------|--------------------|-------------|
G||--------------------|----------------|--------------------|-------------|
D||--------------------|----------------|--------------------|-------------|
A||--------------------|----------------|--------------------|-------------|
E||--------------------|----------------|--------------------|-------------|


[verse]
            D
I love you, baby
                 Bm
Oh, please don't hate me
                 G            A
You're feeling a little sad tonight
               D
But you'll be alright
                 G            A
You're feeling a little sad tonight
               D
But you'll be alright
                 G            A
You're feeling a little sad tonight
               D
But you'll be alright
            
Submit corrections

comments powered by Disqus
↑ Back to top | Camera Obscura Tabs for Before You Cry. Lyrics for acoustic guitar and electric guitar. Tablatures and chords are parodies/interpretations of the original songs. You may use it for private study, scholarship, research or language learning purposes only