» » »

Candy Tabs (ver.1)

Artists:  A B C D E F G H I J K L M N O P Q R S T U V W X Y Z # 

Candy Tabs (ver.1)

Cameo
Rating:
0/5 (0 votes)

Hard to play? Try these video lessons and learn fast.
                PART 1                            PART 2

e-----------------------------------------------------|
B-----------------------------------------------------|
G-----------------------------------------------------|
D------------------------------------------2--------4-|
A-------2-5-----2-5----------------------4---2--2-5---|
E--3-3------3--3------------------3-5-5---------------|

PART 3                            PART 4

e-------------------------------------------------------|
B-------------------------------------------------------|
G-------------------------------------------------------|
D------------------------------------------2------------|
A-------2-5-----2-5----------------------4----3-3-2-2-1-|
E--3-3------3--3------------------3-5-5-----------------|

AND THATS BASICALLY THE ENTIRE RIFF FOR THE SONG.
PLAY ALONG WITH THE SONG IF U CAN SO U CAN GET
THE RHYTHM.

FOR THE PARTS WHERE YOU HERE POWER
CHORDS REPLACE THE LAST 5 NOTES OF PART 4 WITH
THE POWER CHORD VERSIONS.

ANY GAP WHERE U DON'T
HERE THIS RIFF JUST DONT PLAY ANYTHING BECAUSE
THIS RIFF IS BASED OFF OF THE BASS LINE.

~~~PEACE~~~~
            
Hard to play? Try these video lessons and learn fast. | Correct




comments powered by Disqus
↑ Back to top | Tablatures and chords are parodies/interpretations of the original songs. You may use it for private study, scholarship, research or language learning purposes only