» » »

Cameo, Alligator Woman Bass tabs (ver.1)

Artists:  A B C D E F G H I J K L M N O P Q R S T U V W X Y Z # 

Alligator Woman Bass tabs (ver.1)

Cameo Tabs
 Rating:
4/5 (4 votes)
Alligator Woman lessons Tabs too difficult? Try these video lessons and learn fast
                G--------------------------------0-------------------------------|
D--------------------------------0-------------------------------|
A--------------------------------0-------------------------------|
E00-0-020-02030--0-02030-0-02030--0-020-02030--0-02030-0-02030-0-|

verse

G--------------------------------0-|
D--------------------------------0-|
A--------------------------------0-|
E00-0-020-02030--0-02030-0-02030---| play 4 times

chourus

G---------------|
D22-0---------0-|
A----420--0-4---|
E---------------| play 4 times
            
Submit corrections

comments powered by Disqus
↑ Back to top | Cameo Bass for Alligator Woman. Lyrics for acoustic guitar and electric guitar. Tablatures and chords are parodies/interpretations of the original songs. You may use it for private study, scholarship, research or language learning purposes only