>
 >
Stationary Traveller

Stationary Traveller Chords

Camel - Stationary Traveller chords, tabs, tablatures, lyrics

Guitar lessons | Add/correct | Request | Top 50 tabs Artists:  A B C D E F G H I J K L M N O P Q R S T U V W X Y Z 0-9

Stationary Traveller Chords – Camel

CD, Sheet music, Poster

Do you like Stationary Traveller? Share with your friends now
Bass TabsChordsTabs
             TABLATURE EXPLANATION
  ==============================================
           H     -Hammering on
           P     -Pulling off
           S     -Slide
           U     -UP (bending or chocking)
           UD    -Up & Down
           UD P  -UP & Down & Pulling off
           ph    -Picking Harmonics
  ==============================================


  [Piano Opening]

  [Intro / Acoustic guitar]
                                          H  P             S
  -----------------------------|-----------------------------------|
  -----------------------------|-----------------------------------|
  --15--15-15---16-15---15-15--|--15-16-15-16-15-------------------|
  -----------------------------|------------------15-15--11-13-13--|
  -----------------------------|-----------------------------------|
  -----------------------------|-----------------------------------|



  ------------------------|---------------------|
  ------------------------|-14------------------|
  ----------13--15--15-15-|----16-15-15---15-15-|
  -13-15-16---------------|---------------------|
  ------------------------|---------------------|
  ------------------------|---------------------|


            H  P               S
  --------------------------------------|------------------|
  --------------------------------------|------------------|
  --15-16-15-16-15--------13-11-10------|----10-11--13-13--|
  -----------------15-15------------13--|-13---------------|
  --------------------------------------|------------------|
  --------------------------------------|------------------|



  -----------------------------|-----------------------------|
  ------------14-----14-12-11--|---------------11-11---------|
  --13-11-10------11-----------|----11-11---13--------13-13--|
  -----------------------------|--9--------------------------|
  -----------------------------|-----------------------------|
  -----------------------------|-----------------------------|


                S                                H  P
  -----------------------------------|-------------------------|
  --------11--14-16-14--12-11----11--|--11-12--11-12-11--------|
  --11-13---------------------13-----|------------------10-10--|
  -----------------------------------|-------------------------|
  -----------------------------------|-------------------------|
  -----------------------------------|-------------------------|


      S        H  P
  ------------------------|---------------------------------|
  ------------------------|---------------11----------------|
  --------11-10-11-10-----|-----10-11--13----13---13-11-10--|
  --11-13-------------13--|--13-----------------------------|
  ------------------------|---------------------------------|
  ------------------------|---------------------------------|



  -------------------------|----------------------------|
  -----14-12-11------------|-----11-11------------------|
  --11--------------11-11--|--13-------13-13--11-10-----|
  ----------------9--------|------------------------13--|
  -------------------------|----------------------------|
  -------------------------|----------------------------|



                      P                           H  P
  ||--------------------------|------------------------------|
  ||-------------11-----------|------------------------------|
  ||----------------11-10-----|-------------13--10-11-10-----|
  ||----------------------13--|--------------------------13--|
  ||--------------------------|------------------------------|
  ||--------------------------|------------------------------|
  ||
  ||
  || [2nd guitar]
  ||--------------------------|------------------------------|
  ||--11----------------------|--11--------------------------|
  ||-----11---10--------------|-----11---10------------------|
  ||--------9-----------------|--------9---------------------|
  ||--------------------------|------------------------------|
  ||--------------------------|------------------------------|




  ||-----------------------------|-----------------------------|
  ||-----------------------------|-----------------------------|
  ||----------------------11-----|-----------------------------|
  ||-------------------------13--|-------------11--------------|
  ||-------------11-13-14--------|----------------14-13-11-13--|
  ||-----------------------------|-----------------------------|
  ||
  ||
  ||  [2nd guitar]
  ||-----------------------------|------------------------------|
  ||--11-------------------------|--11--------------------------|
  ||-----11---10-----------------|-----11---10------------------|
  ||--------9--------------------|--------9---------------------|
  ||-----------------------------|------------------------------|
  ||-----------------------------|------------------------------|




  [Pan flute solo part / Arpeggio]

  ------------|------------|------------|------------|
  -11---------|-11---------|-11---------|-11---------|
  ----11---10-|----11---10-|----11---10-|----11---10-|
  -------9----|-------9----|-------9----|-------9----|
  ------------|------------|------------|------------|
  ------------|------------|------------|------------|



  ----------|----------|----------|----------|----------|----------|
  -9--------|-9--------|-7--------|-7--------|-7--------|-7--------|
  ---8-10---|---8-10---|---6--8---|---6--8---|---6--8---|---6--8---|
  --------9-|--------9-|----------|--------8-|--------6-|--------6-|
  ----------|----------|--------9-|----------|----------|----------|
  ----------|----------|----------|----------|----------|----------|



  ------------|------------|------------|------------|
  -11---------|-11---------|-11---------|-11---------|
  ----11---10-|----11---10-|----11---10-|----11---10-|
  -------9----|-------9----|-------9----|-------9----|
  ------------|------------|------------|------------|
  ------------|------------|------------|------------|



  ----------|----------|----------|----------|----------|----------|
  -9--------|-9--------|-7--------|-7--------|-7--------|-7--------|
  ---8-10---|---8-10---|---6--8---|---6--8---|---6--8---|---6--8---|
  --------9-|--------9-|----------|--------8-|--------6-|--------6-|
  ----------|----------|--------9-|----------|----------|----------|
  ----------|----------|----------|----------|----------|----------|



  (Synthesizer arranged for guitar - Simply low Octaves)
  ----------------------6---------------------|
  -------6----7----9---------9-----7-----6----|
  --8-----------------------------------------|
  ----8----8----8----8----8-----8-----8----8--|
  --------------------------------------------|
  --------------------------------------------|




  [Solo part / Electric guitar]

          U             U        U   UD              S
  ---------------------------|-------------------------------|
  --11---------11------------|-------------------------------|
  -------13-------11---13----|--13---13--10--10--------------|
  ---------------------------|---------------------11-13-13--|
  ---------------------------|-------------------------------|
  ---------------------------|-------------------------------|


                         UD                          UD
  -------------------------------|------------------------------|
  -------------------------------|---------------11-------------|
  -------------10----11--13--10--|----11-11---13-----13--13-13--|
  -13--11--13--------------------|--9---------------------------|
  -------------------------------|------------------------------|
  -------------------------------|------------------------------|


               H  P      H                    UD                     U
  -----------------------------------|--------------------------------------|
  -------11--11-12-11--12-14--11-11--|-11-12--------------------------------|
  -11-13-----------------------------|--------13-10--10-11-13-11-10---------|
  -----------------------------------|-------------------------------11-13--|
  -----------------------------------|--------------------------------------|
  -----------------------------------|--------------------------------------|


                            P         S                          P
  -----------------------------------------|----------------------------|
  ---------------------11-12-11--11-11--7--|-------------11-11-12-11----|
  ----------10---11-13---------------------|---11-11--13-------------13-|
  -13-11-13--------------------------------|-9--------------------------|
  -----------------------------------------|----------------------------|
  -----------------------------------------|----------------------------|


            H         P            S            P        P
  ----------------------------|--13-14-------------------------------|
  -------11--12--14-14-11-11--|--------11-11--12-11-14-12-11---------|
  -11-13----------------------|-------------------------------13-11--|
  ----------------------------|--------------------------------------|
  ----------------------------|--------------------------------------|
  ----------------------------|--------------------------------------|


                  U        UD P                 H  P
  ------------------------------------------------------|
  ----16--18-19--19--19-16-18--16-----------------------|
  -15------------------------------15-18-18---15-18-15--|
  ------------------------------------------------------|
  ------------------------------------------------------|
  ------------------------------------------------------|


     S        U             P                         H
  -------------------------------------|--ph---------------|
  -------19--21--21-19-18-19-18--------|--14-14-14--14-16--|
  -18-20------------------------20-20--|-------------------|
  -------------------------------------|-------------------|
  -------------------------------------|-------------------|
  -------------------------------------|-------------------|


    U          U       P          S              S
  -13--11-----ph------------------------------------------|
  --------11--14--14--------------------------------------|
  -------------------15-13--15-13--11---------------------|
  -------------------------------------13-11--------------|
  --------------------------------------------13--11--9---|
  --------------------------------------------------------|


     H    U               UD P               UD P       U
  -------------------------------------|-----------------------------|
  -----------------ph-----ph-----------|---------------ph------------|
  -------11--------11-13--13--11----11-|--13-13--11----11------------|
  -----------11-13---------------13----|------------13-----11-13-13--|
  --9-11-------------------------------|-----------------------------|
  -------------------------------------|-----------------------------|


               P       UD    P
  ------------------------------------------|
  -----------ph-----------------------------|
  ----ph-----11-10-----13--11-10------------|
  ----11-13--------13------------13--12-12--|
  -13---------------------------------------|
  ------------------------------------------|


    UD   U     P             U
  ------------------------|-----------------------------------|
  --14--14---14-11--------|----11-----------------------------|
  -----------------10-13--|-13----10-13-10-11-10--------------|
  ------------------------|----------------------13-12-11--11-|
  ------------------------|------------------------------13---|
  ------------------------|-----------------------------------|


    U                  H  P
  --------------------------------------------|
  -----11-------------------------------------|
  --------10-13-13---10-11-10----10-11-10-----|
  -13-------------------------13----------13--|
  --------------------------------------------|
  --------------------------------------------|


    S                               U
  ------11-------13-11---14-11------------|
  -9-11----11-11---------------11------11-|
  ---------------------------------13-----|
  ----------------------------------------|
  ----------------------------------------|
  ----------------------------------------|


             H  P      U       U            U             U
  ------------------------|--------------------------------------|
  ------ph----------------|---ph---------------11------------11--|
  ----8-11- 8-11-8-8- 11--|-8-11-11--11-13-13------11-13-13------|
  -11---------------------|--------------------------------------|
  ------------------------|--------------------------------------|
  ------------------------|--------------------------------------|


          U              U           S  U
  -----------------|-----------------------|
  -----------------|-------11--------------|
  -11-13-13--11----|-11-13----11--13---15--|
  --------------13-|-----------------------|
  -----------------|-----------------------|
  -----------------|-----------------------|


     H        S              S     S
  ----------------------------------------|
  -------11-------------------------------|
  -11-13----11-10-------------------------|
  ----------------13-11-------------------|
  ----------------------13-11--9-11-13-13-|
  ----------------------------------------|


                                   UD        UD P
  --11-13-14-13-11-13-14-13--11--|-16-14--16-16--14-------|
  -------------------------------|------------------16-16-|
  -------------------------------|------------------------|
  -------------------------------|------------------------|
  -------------------------------|------------------------|
  -------------------------------|------------------------|


                     H        P        P           P
  ---------------|-----------------------------------------|
  --11-11-11-----|-------11----------------11--------------|
  -----------11--|-10-11----11-10----11-10----10-11-10-----|
  ---------------|----------------13-------------------12--|
  ---------------|-----------------------------------------|
  ---------------|-----------------------------------------|


           U                  UD
  ----------------------------------------------------------|
  -----------11--11-11-11-11--------------------------------|
  --10-11-13------------------13-10--10-11-13-11-10---------|
  ---------------------------------------------------13-13--|
  ----------------------------------------------------------|
  ----------------------------------------------------------|


                                U
  ------------------------------------------|
  -----------------------ph-ph-ph-----------|
  ----------------10--11-13-13-13-13--11-10-|
  -13--13--12-13----------------------------|
  ------------------------------------------|
  ------------------------------------------|


                H   S         U           S
  -----------------------------------------------------------||
  -----------------------11----------------------------------||
  ---------10-10-11---13-----13--13-13--11-10----------------||
  -gliss-9--------------------------------------13-----------||
  -----------------------------------------------------------||
  -----------------------------------------------------------||
                                                    [The End]





Comments


Popular Camel tabs & chords
Mystic Queen Bass Tabs
Chord Change Tabs
Echoes Intro Tabs
Echoes Intro 1 Tabs
End Of The Day Tabs
Harbour Of Tears Tabs
Lady Fantasy Tabs
Stationary Traveller Live Tabs
The Great Marsh Tabs
Rajaz Ukulele


Song lyrics



↑ Back to top | Tablatures and chords are parodies/interpretations of the original songs. You may use it for private study, scholarship, research or language learning purposes only
© 2014 AZChords.com Contact us | Privacy policy | DMCA | Add/correct tabs | Request tabs | Top 50 tabs