>
 >
Six Ate

Six Ate Guitar Tabs

Camel - Six Ate chords, tabs, tablatures, lyrics

Guitar lessons | Add/correct | Request | Top 50 tabs Artists:  A B C D E F G H I J K L M N O P Q R S T U V W X Y Z 0-9

Six Ate Guitar Tabs – Camel

CD, Sheet music, Poster

Do you like Six Ate? Share with your friends now
Tabs
                                          Artist - Camel
                                         ****************
                                          Song - Six Ate
                                         ****************
                                           Album - Camel
                                          ***************


------------------------------------------------------------------------
You may find this too be slightly out of tune to the studio recording
Well it is on mine, so tune it to the desired pitch, when playing along.
------------------------------------------------------------------------


[--------------|--------------|--------------------|--------------]
[--------------|--------------|--------------------|--------------]
[-14-----------|-14-----------|-13--12-13-12-13----|-14-----------]
[-----14-15-12-|-----14-15-12-|-----------------15-|-----14-15-12-]
[--------------|--------------|--------------------|--------------]
[--------------|--------------|--------------------|--------------]


Chord Strumming - Barred
***************
Am D Am D - E D C - B A G


[---------------]
[---------------]
[-----14---s----]
[-14-----14\16--]
[---------------]
[---------------]


[--------------|--------------|--------------------|--------------]
[--------------|--------------|--------------------|--------------]
[-14-----------|-14-----------|-13--12-13-12-13----|-14-----------]
[-----14-15-12-|-----14-15-12-|-----------------15-|-----14-15-12-]
[--------------|--------------|--------------------|--------------]
[--------------|--------------|--------------------|--------------]


Chord Strumming
***************
Am D Am D - E D C - B A G



[--------------------------------------------------------------------------]
[--------------------------------------------------------------------------]
[---14---s---16---s------------18-16-------------18-16-------------16-18---]
[14----14\16----16\18-18-18-18------18--18-18-18------18--18-18-18---------]
[------------------------------------------------------------------------18]
[--------------------------------------------------------------------------]


01:28
Chord Strumming
***************
Am Am Am D F C C F C F


01:48

[-6-5-3--5-3------|-6-5-3--5-3------|------h------h------h---h---h-s-]
[------------6--5-|------------6--5-|-5-5-5-7-7--5-7-7--5-7-5-7-5-7\-]
[-----------------|-----------------|--------------------------------]
[-----------------|-----------------|--------------------------------]
[-----------------|-----------------|--------------------------------]
[-----------------|-----------------|--------------------------------]


01:59 - The fast bit
[-----------------------1-3-1---------]
[-------0-1-2-3---1-2-3-------3-2-1---]
[-0-2-3-----------------------------3-]
[-------------------------------------]
[----------Play This 4 Times----------]
[-------------------------------------]



Chord Strumming
***************
Gm C# C

   [Play 6 Times]
[--------------s--|--5------------5---------------------p-------]
[--3---6-5-5--5\6-|----6--------6---6-------6-5--------6-5------]Play all
[--3---6-5-5--5\6-|------7----7-------7---------7-5--------7-5--]This 
[--5---6-5-5--5\6-|---------7-----------7-----------7-----------]2 Times
[--5---4-3-3--3\4-|---------------------------------------------]
[--3--------------|---------------------------------------------]

   [Play 12 Times]
[--------------s--]
[--3---6-5-5--5\6-]
[--3---6-5-5--5\6-]
[--5---6-5-5--5\6-]
[--5---4-3-3--3\4-]
[--3--------------]



03:48
[----p---------------------]
[--10-8----8-------s-------]
[-------10-------10\12-----]
[------------12--------12--]
[--------------------------]
[-------Play 4 Times-------]



04:22
SOLO - Chords are Gm C# C
***** ********************
[------------|----------------------------|-----------|--------------------]
[-b-b---b--r-|-----h-p-p---------h-p-p----|--------s--|----b-b--3----------]
[-5-5---5----|-3--2-3-2-0--2-3--2-3-2-0---|-0-2-3-3\5-|-3--5-5----3-5-0-3--]
[------------|--------------------------3-|-----------|--------------------]
[------------|----------------------------|-----------|--------------------]
[------------|----------------------------|-----------|--------------------]

                                                 p p
[------b-----------|-----3-----3-|---3-3--6-3-|-6-5-3--p-p-----------]
[--b-3-6--6-3-rbp--|-b-3---3-6---|-6----------|-------6-5-3--p-p-s---]
[--5----------5--3-|-5-----------|------------|-------------6-5-3\2--]
[------------------|-------------|------------|----------------------]
[------------------|-------------|------------|----------------------]
[------------------|-------------|------------|----------------------]


                         b b       b
[-------|-----3--s--6----8-8--6---6--|----3-----3-6-5-|-3------------3----]
[-------|-b-3---6\8---8---------8----|-6----3-6-------|---3-rbp--b-3---3--]
[-3---0-|-5--------------------------|----------------|-----5--3-5--------]
[---3---|----------------------------|----------------|-------------------]
[-------|----------------------------|----------------|-------------------]
[-------|----------------------------|----------------|-------------------]

   p p
[-6-5-3--p-p----------|-----------------------|-------|--------------]
[-------6-5-3--p-p-s--|-----------------------|-b-----|--------------]
[-------------6-5-3\2-|-3---0-3---0-3---0-0-3-|-5-5-3-|---0-3---0-3--]
[---------------------|---3-----3-----3-------|-------|-3-----3------]
[---------------------|-----------------------|-------|--------------]
[---------------------|-----------------------|-------|--------------]


[-----------------------]
[--b--------------------]
[--5-5-3-0--------------]
[----------3-0----------]
[--------------3-1-3----]
[--------------------3--]


05:00
   [Play 4 Times]
[--------------s--]
[--3---6-5-5--5\6-]
[--3---6-5-5--5\6-]
[--5---6-5-5--5\6-]
[--5---4-3-3--3\4-]
[--3--------------]


05:15                           I,m not sure about this chord
   Bb Eb                        Its either Eb C# or F. I could not decide.
[------s-------s-------s-------s--]  
[--6--8\---6--8\---6--8\---6--8\--]
[--7--8\---7--8\---7--8\---7--8\--]
[--8--8\---8--8\---8--8\---8--8\--]
[--8--6\---8--6\---8--6\---8--6\--]
[--6-------6-------6-------6------]


05:23
 [Play 2 Times]
[-------------]
[--3---6-5-5--]
[--3---6-5-5--]
[--5---6-5-5--]
[--5---4-3-3--]
[--3----------]



Chord Strumming - Use Barred Chords
***************  *******************
Am D Am D - E D C - B A G


05:42
[------------------------------------------------------------------------]
[------------------------------------------------------------------------]
[-----14---s----16---s------------18-16--------------18-16---------------]
[--14----14\16-----16\18-18-18-18-------18--18-18-18-------18--18-18-18--]
[------------------------------------------------------------------------]
[------------------------------------------------------------------------]


[----------------------------------------------------]
[----------------------------------------------------]
[----------------------------------------------------]
[-17--17-17-17--16--16-16-16---15--15-15-15--14--16--]
[----------------------------------------------------]
[----------------------------------------------------]


[------------------------------------------------------]
[------------------------------------------------------]
[------------------------------------------------------]
[--18-18-18-18---18-18-18-18---18-18-18-18---18-18-18--]
[------------------------------------------------------]
[------------------------------------------------------]


[--------------------------------]
[--------------------------------]
[--------------------------------]
[--18-18-18-18--18-18-18-18--18--]
[--------------------------------]
[--------------------------------]


This is a cool instrumental by Camel.....





Comments


Popular Camel tabs & chords
Chord Change Tabs
Curiosity Tabs
Harbour Of Tears Tabs
Ice Intro Tabs
Lady Fantasy Suite Tabs
Mystic Queen Tabs
Never Let Go Tabs
Selva Tabs
Song Within A Song 1 Tabs
Stationary Traveller Tabs


Song lyrics



↑ Back to top | Tablatures and chords are parodies/interpretations of the original songs. You may use it for private study, scholarship, research or language learning purposes only
© 2014 AZChords.com Contact us | Privacy policy | DMCA | Add/correct tabs | Request tabs | Top 50 tabs