>
 >
Rhayader Goes To Town

Rhayader Goes To Town Bass Tabs

Camel - Rhayader Goes To Town chords, tabs, tablatures, lyrics

Guitar lessons | Add/correct | Request | Top 50 tabs Artists:  A B C D E F G H I J K L M N O P Q R S T U V W X Y Z 0-9

Rhayader Goes To Town Bass Tabs – Camel

CD, Sheet music, Poster

Do you like Rhayader Goes To Town? Share with your friends now
Bass TabsBass Tabs v2


0:00 (after rhayader)
||------|-----|-- --|-------||-------|--------|-------|--------||
||*-----|-----|-----|------*||*------|--------|-------|-------*||
||*3----|-(3)-|-1---|-(1)--*||*------|--------|-------|-------*||
||------|-----|-----|-------||-4-----|-(4)----|-3-----|-(3)----||


||----------------------|----------------------|
||*---------------------|----------------------|
||*3-3333-3333-3333-333-|-1-1111-1111-1111-111-|
||----------------------|----------------------|
    
|----------------------|----------------------|
|----------------------|----------------------|
|-3-3333-3333-3333-333-|-1-1111-1111-1111-111-|
|----------------------|----------------------|
                                    
|----------------------|----------------------|
|----------------------|----------------------|
|----------------------|----------------------|
|-4-4444-4444-4444-444-|-3-3333-3333-3333-333-|
                       __________________
                       |1
|----------------------|----------------------||
|----------------------|---------------------*||
|----------------------|---------------------*||
|-4-4444-4444-4444-444-|-3-3333-3333-3333-333-||
______________
|2                 
|----------||   ||--------------------|---------------------|
|----------||   ||-------------5------|------------5--------|
|----------||   ||-3-----3--6-----6~~-|-3-----3--6----6--8~~|
|-3--------||   ||----3---------------|----3----------------|
           

|-------------------|---------------------|
|------------5------|------------5--------|
|3-----3--6-----6~~-|-3-----3--6----6--8~~|
|---3---------------|----3----------------| 



|-------------------|---------------------||
|------------5------|------------5--------||
|3-----3--6-----6~~-|-3-----3--6----6--8~~||
|---3---------------|----3----------------|| 
                   
                   _________________   ________
                  |1,2,                |3
||--------|-------|--------|--------|| |----------|
||*-------|-------|--------|-------*|| |----------|
||*3------|-----5-|-4----4-|-3--4-6*|| |-5--------|
||------3-|-4-----|--------|--------|| |----6-----|


||-------------------|---------------------|---------------------|
||------------5------|------------5--------|--------------5------|
||3-----3--6-----6~~-|-3-----3--6----6--8~~|-3-----3---6-----6~~-|
||---3---------------|----3----------------|----3----------------|

|-----------------------|------------------|--------------------||
|-------------5---------|-------------5----|-----------5--------||
|-3-----3--6-----6--8~~-|-3-----3--6----6--|-3---3--6----6--8~~-||
|----3------------------|----3-------------|---3----------------||

                   ______________       ________
                  |1,2,                |3
||--------|-------|--------|--------|| |-------------|
||*-------|-------|--------|-------*|| |-------------|
||*3------|-----6-|-5----5-|-4--4-6*|| |--5----------|
||------3-|-4-----|--------|--------|| |--------6----|


big guitar solo part  (It's every time a bit different
rithmic as well as the notes 
||--------------------------------------------------||
||--------------------------------------------------||
||-3-----1-3--1-3----3---1---3-----1-3--1-3--3---1--||
||-----3---------------3--------3--------------3----||

||---------------------------|
||---------------------------|
||-3-----1-3--1-3----3---1---|
||-----3---------------3-----|



|----------------------------------------------------------||
|------------------------6-6----6----6---------------------||
|-1-1--1---1-1---1-----6------6----6---6---5-5-5-5-4-4-4-4-||
|-----1---1----1----4--------------------------------------||

||----------------------------------------------------------8---|
||-----------------5------------------3---------6-6---6--6----6-|
||-3----1-3-1-3--3---3--1-1---1---1-1---1-----6-----6-----------|
||----3---------------------1---1----------4--------------------|

                                          (both ring)
|-----------------||---------------------------------------------|
|-----------------||--------------------5~~~----------------3~~~-|
|-5-5-5-5-4-4-4-4-||-3----1--3--1--3--3---3~-1--1---1---1-1---1~-|
|-----------------||---3--------------------------1---1----------|

|-------------------------------------------||
|------6---6---6----------------------------||
|-----6---6---6--6--5-5-5-5-444-444-444-444-||
|-4--4--------------------------------------||

||-------------------------------------------|
||---------------------------------------3---|
||-3----1-3--1-3--3---3--1--1---1---1-1----1-|
||----3-------------3---------1---1----------|

|---------------------------------------------||------------------------|
|-------6----6---6----------------------------||------------------------|
|------6---6---6---6--5-5-5-5-444-444-444-444-||-3----1-3--1-3-1--1-3---|
|-4--4----------------------------------------||----3-----------------3-|

|---------------------------------8-----77777777-666-666-666-666-||
|----------------3-------66---6-6---6----------------------------||
|-1--1---1---1-1---1---6----6------------------------------------||
|------1---1---------4-------------------------------------------||

||-----------------------------------------------------8------------|
||--------------------------------------------6---6--6---6----------|
||-3---1-3--1-3-3---1--1-1---1---1-1---1-----6--6-----------5-5-5-5-|
||---3------------3--------1---1-----1---4--4-----------------------|
                   
                                                    (let ring)
|-----------------||------------------------------------------|
|-----------------||--------------------------------------3---|
|-444-444-444-444-||-3----1-3--1--3--3---1-1-1---1---1--1---1-|
|-----------------||----3--------------3-------1---1----------|

|------------------------------------------------||
|------6-6---6----6------------------------------||
|----6-----6----6---6-5--5-5-5-5-444-444-444-444-||
|-4----------------------------------------------||

                   ______________       ________
                  |1,2,                |3
||--------|-------|--------|--------|| |-------------|
||*-------|-------|--------|-------*|| |-------------|
||*3------|-----6-|-5----5-|-4--4-6*|| |--5----------|
||------3-|-4-----|--------|--------|| |--------6----|


repeat RifB then

||--------------------|------------------|----------------|
||-------------5------|------------5-----|----------9--12-|
||-3-----3--6-----6~~-|-3-----3--6---6~~-|-8--11--11------|
||----3---------------|----3-------------|----------------|

|-----------------|-------------------|-----------------|
|-12--9-----------|-------------5-----|------------5----|
|---------11-8----|-3-----3---6---6~~-|-3----3---6---6--|
|-----------------|----3--------------|----3------------|

|----------------------------------|------------------------||
|----------9--12--12--9------------|-10---10--10------------||
|-8--11-11----------------11---8---|------------------------||
|----------------------------------|----------------8~~~~~--||

(sequel to sanctuary)


there is a live version of this song and as for as i know that version is 
more known than the original. for most of the song it stays the same 
except in this part, this became slightly different:

as far as i can remember it should go like this:
|--------------------|-----------------------|--------------------|
|-----------5--------|----------5------------|----------5---------|
|3-----3--6---6--3--6|-3----3-6---6--3-6--8~~|-3---3--6---6-3-6~~-|
|---3----------------|---3-------------------|---3----------------|

|-----------------------------|
|-------------5---------------|
|-3-----3--6-----6--3--6--8~~-|                     
|----3------------------------|





Comments


Popular Camel tabs & chords
Rajaz Chords
Echoes Tabs
Echoes Intro 1 Tabs
Lunar Sea Tabs
Mystic Queen Tabs
Sanctuary Tabs
Snow Goose 1 Tabs
Stationary Traveller Tabs
Stationary Traveller Live Tabs
Air Born Ukulele


Song lyrics



↑ Back to top | Tablatures and chords are parodies/interpretations of the original songs. You may use it for private study, scholarship, research or language learning purposes only
© 2014 AZChords.com Contact us | Privacy policy | DMCA | Add/correct tabs | Request tabs | Top 50 tabs