» » »

Camel, Never Let Go Bass tabs (ver.1)

Artists:  A B C D E F G H I J K L M N O P Q R S T U V W X Y Z # 

Never Let Go Bass tabs (ver.1)

Camel Tabs
Rating:
5/5 (1 vote)
Hard to play? Try these video lessons and learn fast.
                -----------------------------------------------------------------------------
-----------------------------------------------------------------------------

This is probably the easiest Camel tune for bass.  Pretty much keeps the same rhythm throughout.  


INTRO
    0:12                                                       X 2
G|--9-----12-----11-----12-----|------------------------------------|-------|
D|-----------------------------|*----------------------------------*|-------|
A|-----------------------------|*--7----7\--3----3-2----2-3----3/--*|--7----|
E|-----------------------------|------------------------------------|-------|


VERSE
    0:53                                             X 6
G|---------2------------2-----|--------4-----------4------|-----------------|
D|*------------------------2--|--------------------------*|-----------------|
A|*--0--0------0--0--0--------|--2--2-----2--2--2-----2--*|--3------2-------|
E|----------------------------|---------------------------|-----------------|


CHORUS                                                                X 2
G|-----9-------9----|-----5-------5----|-----4-------4----|-----5-------5---|
D|*-----------------|------------------|------------------|----------------*|
A|*7-7---7-7-7---7--|-3-3---3-3-3---3--|-2-2---2-2-2---2--|-3-3---3-3-3---3*|
E|------------------|------------------|------------------|-----------------|
 
       
G|------------|       
D|-2----------|       
A|------------|       
E|------------|       


VERSE


CHORUS

G|---------------------|
D|*-------------------*|
A|*----------0--2--3--*|  X 4
E|--0--2--3------------|


  FLUTE SOLO (with variations)
G|------9-9-------9-9---|------7-------7----|
D|--------------------9-|-------------------|
A|--7-7-----7-7-7-------|--5-5---5-5-5---5--|  X 19
E|----------------------|-------------------|

G|------9-9-------9-9---|------7-|------5-------5---|------4-------4---|
D|--------------------9-|--------|------------------|------------------|
A|--7-7-----7-7-7-------|--5-5---|--3-3---3-3-3---3-|--2-2---2-2-2---2-|
E|----------------------|--------|------------------|------------------|

G|-----------------------------|-----------------------------|---------|
D|-----------------------------|-----------------------------|---------|
A|---------0-2-3---------0-2-3-|---------0-2-3---------0-2-3-|---------|
E|--0--2-3--------0--2-3-------|--0--2-3--------0--2-3-------|--0------|


INTRO (one time thru)

CHORUS (Repeat and Fade)
            

comments powered by Disqus
↑ Back to top | Camel Bass for Never Let Go. Lyrics for acoustic guitar and electric guitar. Tablatures and chords are parodies/interpretations of the original songs. You may use it for private study, scholarship, research or language learning purposes only