» » »

Calvin Harris, The Girls Bass tabs (ver.2)

Artists:  A B C D E F G H I J K L M N O P Q R S T U V W X Y Z # 

The Girls Bass tabs (ver.2)

Calvin Harris Tabs
 Rating:
4/5 (4 votes)
The Girls lessons Tabs too difficult? Try these video lessons and learn fast
1
                -------------------------------------------------------------------------------
			     The Girls - Calvin Harris
-------------------------------------------------------------------------------


Tuning:Standard

Method A: 5 string

G|---------------------------------------------------------------------------|
D|---7----7---9---11---11----------------------------------------------------|
A|------------------------11---7---------------------------------------------|
E|-5---5---7----9----9------------0------------------------------------------|
B|----------------------9---9------------------------------------------------|

G|----------------------------13----9----------------------------------------|
D|---7----7---9---11---11-------------7--------------------------------------|
A|-------------------------11---11-------------------------------------------|
E|-5---5---7---9----9--------------------------------------------------------|
B|---------------------------------------------------------------------------|

Method B: 4 String

G|---------------------------------------------------------------------------|
D|---7----7---9---11---11---6------------------------------------------------|
A|-----------------------------7---------------------------------------------|
E|-5---5---7---9----9---4---4-----0------------------------------------------|

G|----------------------------13----9----------------------------------------|
D|---7----7---9---11---11-------------7--------------------------------------|
A|-------------------------11---11-------------------------------------------|
E|-5---5---7---9----9--------------------------------------------------------|

Two ways to play it there depending on your setup. I prefer it personally on the five 
string as you can get a better contrast the high and low notes. Enjoy and feel free to 
comment/correct. (It sounds mostly right to me)

| /  slide up
| \  slide down
| h  hammer-on
| p  pull-off
| ~  vibrato
| +  harmonic
| x  Mute note
===============================================================================
            
Submit corrections

comments powered by Disqus
↑ Back to top | Calvin Harris Bass for The Girls. Lyrics for acoustic guitar and electric guitar. 1 Tablatures and chords are parodies/interpretations of the original songs. You may use it for private study, scholarship, research or language learning purposes only