» » »

Calvin Harris, I'm Not Alone Tabs (ver.4)

Artists:  A B C D E F G H I J K L M N O P Q R S T U V W X Y Z # 

I'm Not Alone Tabs (ver.4)

Calvin Harris Tabs
 Rating:
4/5 (4 votes)
I'm Not Alone lessons Tabs too difficult? Try these video lessons and learn fast
                -------------------------------------------------------------------------------
                        I'm Not Alone - Calvin Harris
-------------------------------------------------------------------------------

My take on this amazing song by Calvin Harris, not exactly originally played on
guitar but it works imo 

Tuning: Standard

Intro

      1 s e s 2 s e s 3 s e s 4 s e s     1 s e s 2 s e s 3 s e s 4 s e s 
e||-----------------------------------|-----------------------------------||
B||-----------------------------------|-----------------------------------||
G||---4-------4-------4------/7-------|---2-------2-------2-------0-------||
D||-------2-------2-------2-------5---|-------0-------0-------0-------0---||
A||-----------------------------------|-----------------------------------||
E||-----------------------------------|-----------------------------------||

Chorus

      1 s e s 2 s e s 3 s e s 4 s e s     1 s e s 2 s e s 3 s e s 4 s e s 
e||-----------------------------------|-----------------------------------||
B||-----------------------------------|-----------------------------------||
G||---4-----4-----7-----7-----9-------|-----------------9-----7-----------||
D||---4-----4-----7-----7-----9-------|-----------------9-----7-----7-----||
A||---2-----2-----5-----5-----7-------|-----------------7-----5-----7-----||
E||-----------------------------------|-----------------------------5-----||

The other verses play a kind of variation on the chorus riff so if you wanted
to play the chorus riff through the verses that works.

The chorus is the same throughout

| /  slide up
| \  slide down
| h  hammer-on
| p  pull-off
| ~  vibrato
| +  harmonic
| x  Mute note
===============================================================================
            
Submit corrections

comments powered by Disqus
↑ Back to top | Calvin Harris Tabs for I'm Not Alone. Lyrics for acoustic guitar and electric guitar. Tablatures and chords are parodies/interpretations of the original songs. You may use it for private study, scholarship, research or language learning purposes only