» » »

Feel So Close Chords (ver.2)

Artists:  A B C D E F G H I J K L M N O P Q R S T U V W X Y Z # 

Feel So Close Chords (ver.2)

Calvin Harris
Rating:
5/5 (2 votes)

Hard to play? Try these video lessons and learn fast.
                Here's 2 ways to play the main riff:
(i recommend the 1st one on electric and the 2nd on acoustic)

1st way :)
e-------------------------------------------------------------------|
B----13--13--13--13--12--12--12--12-12-12-12-12---------------------|
G--12--12--12--12--12--12--12--12--9--9--9--9-----12--12--12--12----|
D-----------------------------------------------10--10--10--10------|
A-------------------------------------------------------------------|
E ------------------------------------------------------------------|

2nd way :)
e-------------------------------------------------|
B--1-1-1-1-0-0-0-0--0-0-0-0-----------------------|
G-0-0-0-0-0-0-0-0------------0-0-0-0--------------|
D------------------2-2-2-2------------------------|
A---------------------------3-3-3-3---------------|
E-------------------------------------------------|



Verse:
(Palm muted)

Am                             Em
I feel so close to you right now
It's a force field
G                            C
I wear my heart upon my sleeve,
like a big deal
Am                        Em
Your love pours down on me,
                            G
surround me like a waterfall
                                    C
And there's no stopping us right now
Am                              Em
I feel so close to you right now

[riff plays]

Am                              Em
I feel so close to you right now
It's a force field
G                            C
I wear my heart upon my sleeve,
like a big deal
Am                       Em
Your love pours down on me,
                           G
surround me like a waterfall
                                   C
And there's no stopping us right now
Am                             Em
I feel so close to you right now

[riff plays]

G                                  C
And there's no stopping us right now
G                                  C
And there's no stopping us right now
G                                  C
And there's no stopping us right now
Am                            Em
I feel so close to you right now...
            
Hard to play? Try these video lessons and learn fast. | Correct




comments powered by Disqus
↑ Back to top | Tablatures and chords are parodies/interpretations of the original songs. You may use it for private study, scholarship, research or language learning purposes only