» » »

Whereve You Will Go Tabs (ver.1)

Artists:  A B C D E F G H I J K L M N O P Q R S T U V W X Y Z # 

Whereve You Will Go Tabs (ver.1)

Calling
Rating:
0/5 (0 votes)

Hard to play? Try these video lessons and learn fast.
                Wherever You Will Go-The calling

Note:Intro:Let ring throughout and doubled throughout

Riff A(intro):
|-------------------|-----------------|-----------------|
|-------------1-----|-----------1-----|-----------1-----|
|-------0---0---0---|-----0---0---0---|-----0---0---0---|
|-----2---2-------0-|---0---0-------0-|---2---2-------0-|
|---3---------------|-2-----2---------|-0---------------|
|-------------------|-----------------|-----------------|

|-----------------------||
|------1-------1-----1--||
|--------0-----0-----0--||
|----0------------------||
|-----------------------||
|--1--------1-----3-----||


Verse:
Gtr 1: w/riff a
Gtr 2: tacet

 D   Dsus2   Dsus2/C#  Bm7   G(no 3rd)   Asus4  x2
(C) (Csus2) (Csus2/B) (Am7) (F(no 3rd)) (Gsus4) 

Riff B: Guitar 3(second time around, ring throught slight dist.)
|-5~----------|---------------|--------------------------------|
|-----------5~|---------------|--------------------------------|
|-------------|-------------7~|--------------------------------|
|-------------|---------------|--------------------------------|
|-------------|---------------|--------------------------------|
|-------------|---------------|--------------------------------|

Chorus: same chords as before just listen to the song and you'll get it so other picking but it's pretty much the same as the intro
            
Hard to play? Try these video lessons and learn fast. | Correct




comments powered by Disqus
↑ Back to top | Tablatures and chords are parodies/interpretations of the original songs. You may use it for private study, scholarship, research or language learning purposes only