>
 >
Things Don't Always Turn Out That Way

Things Don't Always Turn Out That Way Guitar Tabs

Calling - Things Don't Always Turn Out That Way chords, tabs, tablatures, lyrics

Guitar lessons | Add/correct | Request | Top 50 tabs Artists:  A B C D E F G H I J K L M N O P Q R S T U V W X Y Z 0-9

Things Don't Always Turn Out That Way Guitar Tabs – Calling

CD, Sheet music, Poster

Do you like Things Don't Always Turn Out That Way? Share with your friends now
ChordsTabsTabs v2
The Calling

Intro/Verse		Rythym Guitar
E-------------|------------|-------------|--------------------------|
B-------------|------------|-------------|--------------------------|
G-------------|------------|-------------|--------------------------|
D-------------|------------|-------------|--------------------------|. 
A--5--5--5--5-|-7--7--7--7-|--8--8--8--8-|--10--10--10--10----------|
E--3--3--3--3-|-5--5--5--5-|--6--6--6--6-|--8---8---8---8-----------|	



Chorus                    Lead Guitar
E---11-10------------10-----------------------------------------------|
B-----------------------13---------13----13--11------10--10-----------|
G---------12(Hold)---------10---10----10----------10------------------|
D---------------------------------------------------------------------|
A---------------------------------------------------------------------|
E---------------------------------------------------------------------|

E-----------|
B----3------|
G----5------|
D----4------|
A----5------|
E-----------|

Chorus

     Cm                    F                   Bb                        Gm

E--3--3---3---3---3-----1--1--1--1---1-----6---6--6----6---6-------3--3--3--3---3--|
B--4--4---4---4---4-----1--1--1--1---1-----6---6--6----6---6-------3--3--3--3---3--|
G--5--5---5---4---4-----2--2--2--2---2-----4---4--4----4---4-------3--3--3--3---3--|
D--5--5---5---5---5-----3--3--3--3---3-----5---5--5----5---5-------5--5--5--5---5--|
A--3--3---3---3---3-----3--3--3--3---3-----5---5--5----5---5-------5--5--5--5---5--|
E--3--3---3---3---3-----1--1--1--1---1-----6---6--6----6---6-------3--3--3--3---3--|



Bridge

    Eb            Gm            Eb             Gm
E---X-X-X-X-X-----3-3-3-3--3----X-X-X--X--X-----3--3--3--3--3-----------|
B---8-8-8-8-8-----3-3-3-3--3----8-8-8--8--8-----3--3--3--3--3-----------|
G---8-8-8-8-8-----3-3-3-3--3----8-8-8--8--8-----3--3--3--3--3-----------|
D---8-8-8-8-8-----5-5-5-5--5----8-8-8--8--8-----5--5--5--5--5-----------| 
A---6-6-6-6-6-----5-5-5-5--5----6-6-6--6--6-----5--5--5--5--5-----------| 
E---X-X-X-X-X-----3-3-3-3--3----X-X-X--X--X-----3--3--3--3--3-----------|


      C7                                   F   

E-----0------------------------------------1--1--1--1--1|
B-----1------------------------------------1--1--1--1--1|
G-----3------------------------------------2--2--2--2--2| 
D-----2------------------------------------3--3--3--3--3|
A-----3------------------------------------3--3--3--3--3|
E-----X------------------------------------1--1--1--1--1|



Rob.k#
-Dressed2kill





Comments


Popular Calling tabs & chords
Adrienne 1 Chords
Anything 3 Chords
Wherever You Will Go 5 Chords
Your Hope Chords
Adrienne Intro Tabs
Nothing's Changed Tabs
Thank You 2 Tabs
Wherever You Will Go 5 Tabs
One By One Ukulele
Wherever You Will Go Ukulele


Song lyrics



↑ Back to top | Tablatures and chords are parodies/interpretations of the original songs. You may use it for private study, scholarship, research or language learning purposes only
© 2014 AZChords.com Contact us | Privacy policy | DMCA | Add/correct tabs | Request tabs | Top 50 tabs