>
 >
Stigmatized 6

Stigmatized 6 Guitar Tabs

Calling - Stigmatized 6 chords, tabs, tablatures, lyrics

Guitar lessons | Add/correct | Request | Top 50 tabs Artists:  A B C D E F G H I J K L M N O P Q R S T U V W X Y Z 0-9

Stigmatized 6 Guitar Tabs – Calling

CD, Sheet music, Poster

Do you like Stigmatized 6? Share with your friends now
Bass TabsChordsChords v2TabsTabs v2Tabs v3Tabs v4Tabs v5Tabs v6Ukulele
Stigmatized


                 ************...SLU-LHS...*************
                  ************************************


-----------------------PLS... RATE THIS TAB TNX!-----------------------------

Legends:

v    -Down ward stroke(strumming)
^    -Up ward stroke(strumming)


Intro:

e|--------------------------------------------------------------------|
B|--------------------------------------------------------------------|
G|--4-4-4--2-2-2-2---4-4-4--2-2-2-2---6-6-6--7-7-7-7--6-6-6--7-7-7-7--|
D|--0-0-0--0-0-0-0---0-0-0--0-0-0-0---0-0-0--0-0-0-0--0-0-0--0-0-0-0--|
A|--x-x-x--x-x-x-x---x-x-x--x-x-x-x---x-x-x--x-x-x-x--x-x-x--x-x-x-x--|
E|--3-3-3--3-3-3-3---3-3-3--3-3-3-3---5-5-5--7-7-7-7--5-5-5--7-7-7-7--|
    v ^ ^  v ^ ^ v   v ^ ^  v ^ ^ v   v ^ ^  v ^ ^ v  v ^ ^  v ^ ^ v

e|---------------------------------------------------------------|
B|---------------------------------------------------------------|
G|--4-4-4--2-2-2-2---4-4-4--2-2-2-2---6-6-6--7-7-7-7--6-6-6--7---|
D|--0-0-0--0-0-0-0---0-0-0--0-0-0-0---0-0-0--0-0-0-0--0-0-0--0---|
A|--x-x-x--x-x-x-x---x-x-x--x-x-x-x---x-x-x--x-x-x-x--x-x-x--x---|
E|--3-3-3--3-3-3-3---3-3-3--3-3-3-3---5-5-5--7-7-7-7--5-5-5--7---|
    v ^ ^  v ^ ^ v   v ^ ^  v ^ ^ v   v ^ ^  v ^ ^ v  v ^ ^  v

verse I

e|--------------------------------------------------------------------|
B|--------------------------------------------------------------------|
G|--4-4-4--2-2-2-2---4-4-4--2-2-2-2---6-6-6--7-7-7-7--6-6-6--7-7-7-7--|(x2)
D|--0-0-0--0-0-0-0---0-0-0--0-0-0-0---0-0-0--0-0-0-0--0-0-0--0-0-0-0--|
A|--x-x-x--x-x-x-x---x-x-x--x-x-x-x---x-x-x--x-x-x-x--x-x-x--x-x-x-x--|
E|--3-3-3--3-3-3-3---3-3-3--3-3-3-3---5-5-5--7-7-7-7--5-5-5--7-7-7-7--|
    v ^ ^  v ^ ^ v   v ^ ^  v ^ ^ v   v ^ ^  v ^ ^ v  v ^ ^  v ^ ^ v


Chorus:

e|-----------------------------------------------|
B|-----------------------------------------------|
G|--12-12-12-12-12-12-12---11-11-11-11-11-11-11--|
D|--0--0--0--0--0--0--0----0--0--0--0--0--0--0---|
A|--x--x--x--x--x--x--x----x--x--x--x--x--x--x---|
E|--12-12-12-12-12-12-12---10-10-10-10-10-10-10--|
    v   ^  ^  v  ^  ^ v    v   ^  ^ v   ^  ^ v


e|----------------------------------|
B|----------------------------------|
G|--9-9-9-9-9-9-9---7-7-7-7-7-7-7---|
D|--0-0-0-0-0-0-0---0-0-0-0-0-0-0---|
A|--x-x-x-x-x-x-x---x-x-x-x-xx-x---|
E|--9-9-9-9-9-9-9---7-7-7-7-7-7-7---|
    v ^ ^ v ^ ^ v   v ^ ^ v ^ ^ v


e|-----------------------------------------------|
B|-----------------------------------------------|
G|--12-12-12-12-12-12-12---14-14-14-14-14-14-14--|
D|--0--0--0--0--0--0--0----0--0--0--0--0--0--0---|
A|--x--x--x--x--x--x--x----x--x--x--x--x--x--x---|
E|--12-12-12-12-12-12-12---14-14-14-14-14-14-14--|
    v   ^  ^  v  ^  ^ v    v   ^  ^ v   ^  ^ v


e|----------------------------------|
B|----------------------------------|
G|--9-9-9-9-9-9-9---7-7-7-7-7-7-7---|
D|--0-0-0-0-0-0-0---0-0-0-0-0-0-0---|
A|--x-x-x-x-x-x-x---x-x-x-x-xx-x---|
E|--9-9-9-9-9-9-9---7-7-7-7-7-7-7---|
    v ^ ^ v ^ ^ v   v ^ ^ v ^ ^ v

verse:

e|--------------------------------------------------------------------|
B|--------------------------------------------------------------------|
G|--4-4-4--2-2-2-2---4-4-4--2-2-2-2---6-6-6--7-7-7-7--6-6-6--7-7-7-7--|
D|--0-0-0--0-0-0-0---0-0-0--0-0-0-0---0-0-0--0-0-0-0--0-0-0--0-0-0-0--|
A|--x-x-x--x-x-x-x---x-x-x--x-x-x-x---x-x-x--x-x-x-x--x-x-x--x-x-x-x--|
E|--3-3-3--3-3-3-3---3-3-3--3-3-3-3---5-5-5--7-7-7-7--5-5-5--7-7-7-7--|
    v ^ ^  v ^ ^ v   v ^ ^  v ^ ^ v   v ^ ^  v ^ ^ v  v ^ ^  v ^ ^ v


Verse II

e|--------------------------------------------------------------------|
B|--------------------------------------------------------------------|
G|--4-4-4--2-2-2-2---4-4-4--2-2-2-2---6-6-6--7-7-7-7--6-6-6--7-7-7-7--|(x2)
D|--0-0-0--0-0-0-0---0-0-0--0-0-0-0---0-0-0--0-0-0-0--0-0-0--0-0-0-0--|
A|--x-x-x--x-x-x-x---x-x-x--x-x-x-x---x-x-x--x-x-x-x--x-x-x--x-x-x-x--|
E|--3-3-3--3-3-3-3---3-3-3--3-3-3-3---5-5-5--7-7-7-7--5-5-5--7-7-7-7--|
    v ^ ^  v ^ ^ v   v ^ ^  v ^ ^ v   v ^ ^  v ^ ^ v  v ^ ^  v ^ ^ v


Chorus:

e|-----------------------------------------------|
B|-----------------------------------------------|
G|--12-12-12-12-12-12-12---11-11-11-11-11-11-11--|
D|--0--0--0--0--0--0--0----0--0--0--0--0--0--0---|
A|--x--x--x--x--x--x--x----x--x--x--x--x--x--x---|
E|--12-12-12-12-12-12-12---10-10-10-10-10-10-10--|
    v   ^  ^  v  ^  ^ v    v   ^  ^ v   ^  ^ v


e|----------------------------------|
B|----------------------------------|
G|--9-9-9-9-9-9-9---7-7-7-7-7-7-7---|
D|--0-0-0-0-0-0-0---0-0-0-0-0-0-0---|
A|--x-x-x-x-x-x-x---x-x-x-x-xx-x---|
E|--9-9-9-9-9-9-9---7-7-7-7-7-7-7---|
    v ^ ^ v ^ ^ v   v ^ ^ v ^ ^ v


e|-----------------------------------------------|
B|-----------------------------------------------|
G|--12-12-12-12-12-12-12---14-14-14-14-14-14-14--|
D|--0--0--0--0--0--0--0----0--0--0--0--0--0--0---|
A|--x--x--x--x--x--x--x----x--x--x--x--x--x--x---|
E|--12-12-12-12-12-12-12---14-14-14-14-14-14-14--|
    v   ^  ^  v  ^  ^ v    v   ^  ^ v   ^  ^ v


e|----------------------------------|
B|----------------------------------|
G|--9-9-9-9-9-9-9---7-7-7-7-7-7-7---|
D|--0-0-0-0-0-0-0---0-0-0-0-0-0-0---|
A|--x-x-x-x-x-x-x---x-x-x-x-xx-x---|
E|--9-9-9-9-9-9-9---7-7-7-7-7-7-7---|
    v ^ ^ v ^ ^ v   v ^ ^ v ^ ^ v

verse:

e|--------------------------------------------------------------------|
B|--------------------------------------------------------------------|
G|--4-4-4--2-2-2-2---4-4-4--2-2-2-2---6-6-6--7-7-7-7--6-6-6--7-7-7-7--|
D|--0-0-0--0-0-0-0---0-0-0--0-0-0-0---0-0-0--0-0-0-0--0-0-0--0-0-0-0--| (x2)
A|--x-x-x--x-x-x-x---x-x-x--x-x-x-x---x-x-x--x-x-x-x--x-x-x--x-x-x-x--|
E|--3-3-3--3-3-3-3---3-3-3--3-3-3-3---5-5-5--7-7-7-7--5-5-5--7-7-7-7--|
    v ^ ^  v ^ ^ v   v ^ ^  v ^ ^ v   v ^ ^  v ^ ^ v  v ^ ^  v ^ ^ v

e|------------------------------------|
B|------------------------------------|
G|--4-4-4--2-2-2-2---4-4-4--2-2-2-2---|
D|--0-0-0--0-0-0-0---0-0-0--0-0-0-0---|
A|--x-x-x--x-x-x-x---x-x-x--x-x-x-x---|
E|--3-3-3--3-3-3-3---3-3-3--3-3-3-3---|
    v ^ ^  v ^ ^ v   v ^ ^  v ^ ^ v


Ad lib:

e|-------------------------|
B|-------------------------|
G|--2-2--4-4-x--6-6--7-7---|(x4)
D|--0-0--0-0-x--0-0--0-0---|
A|--x-x--x-x-x--x-x--x-x---|
E|--3-3--3-3-x--5-5--7-7---|
    v v  v v ^  v v  v v

e|--------------------------------------------------------------------|
B|--------------------------------------------------------------------|
G|--4-4-4--2-2-2-2---4-4-4--2-2-2-2---6-6-6--7-7-7-7--6-6-6--7-7-7-7--|
D|--0-0-0--0-0-0-0---0-0-0--0-0-0-0---0-0-0--0-0-0-0--0-0-0--0-0-0-0--| (x2)
A|--x-x-x--x-x-x-x---x-x-x--x-x-x-x---x-x-x--x-x-x-x--x-x-x--x-x-x-x--|
E|--3-3-3--3-3-3-3---3-3-3--3-3-3-3---5-5-5--7-7-7-7--5-5-5--7-7-7-7--|
    v ^ ^  v ^ ^ v   v ^ ^  v ^ ^ v   v ^ ^  v ^ ^ v  v ^ ^  v ^ ^ v


e|-------------------------|
B|-------------------------|
G|--2-2--4-4-x--6-6--7-7---|(x4)
D|--0-0--0-0-x--0-0--0-0---|
A|--x-x--x-x-x--x-x--x-x---|
E|--3-3--3-3-x--5-5--7-7---|
    v v  v v ^  v v  v v

e|--------------------------------------------------------------------|
B|--------------------------------------------------------------------|
G|--4-4-4--2-2-2-2---4-4-4--2-2-2-2---6-6-6--7-7-7-7--6-6-6--7-7-7-7--|
D|--0-0-0--0-0-0-0---0-0-0--0-0-0-0---0-0-0--0-0-0-0--0-0-0--0-0-0-0--| (x4)
A|--x-x-x--x-x-x-x---x-x-x--x-x-x-x---x-x-x--x-x-x-x--x-x-x--x-x-x-x--|
E|--3-3-3--3-3-3-3---3-3-3--3-3-3-3---5-5-5--7-7-7-7--5-5-5--7-7-7-7--|
    v ^ ^  v ^ ^ v   v ^ ^  v ^ ^ v   v ^ ^  v ^ ^ v  v ^ ^  v ^ ^ v


e|-------------------|
B|-------------------|
G|--4-4-4--2-2-2-2---|
D|--0-0-0--0-0-0-0---|
A|--x-x-x--x-x-x-x---|
E|--3-3-3--3-3-3-3---|
    v ^ ^  v ^ ^ v


***... for Comments or suggestions just mail me...*** 





Comments


Popular Calling tabs & chords
One By One Chords
Unstoppable Chords
We're Forgiven Chords
Wherever You Will Go 6 Chords
Could It Be Any Harder 5 Tabs
Final Answer Tabs
Unstoppable Tabs
Final Answer Ukulele
Things Will Go My Way Ukulele
Your Hope Ukulele


Song lyrics



↑ Back to top | Tablatures and chords are parodies/interpretations of the original songs. You may use it for private study, scholarship, research or language learning purposes only
© 2014 AZChords.com Contact us | Privacy policy | DMCA | Add/correct tabs | Request tabs | Top 50 tabs