» » »

Calling, Stigmatized Tabs (ver.1)

Artists:  A B C D E F G H I J K L M N O P Q R S T U V W X Y Z # 

Stigmatized Tabs (ver.1)

Calling Tabs
 Rating:
4.5/5 (8 votes)
Stigmatized lessons Tabs too difficult? Try these video lessons and learn fast
1
                PROPS GO TO: Jordan

Guitar 1
 e-------------------------------------------------------------------------------------
 B-------------------------------------------------------------------------------------
 G--------4--4----2-2-2---4--4---2-2-2---6--6---7-7-7---6--6---7-7-7-------------------
 D-------------------------------------------------------------------------------------
 A-------------------------------------------------------------------------------------
 E--------3--3----3-3-3---3--3---3-3-3---5--5---7-7-7---5--5---7-7-7-------------------


   Guitar 2 at the Chorus
 
 e-------------------------------------------------------------------------------------
 B-------------------------------------------------------------------------------------
 G--------12---11---7--------12---11---7-----9---7-------------------------------------
 D----------------------------------------7--------------------------------------------
 A-------------------------------------------------------------------------------------
 E-------------------------------------------------------------------------------------

   Chorus
 
 e-------------------------------------------------------------------------------------
 B-------------------------------------------------------------------------------------
 G--------12--12---12-12-12---11--11---11-11-11---9--9---9-9-9---7--7---7-7-7----------
 D-------------------------------------------------------------------------------------
 A-------------------------------------------------------------------------------------
 E--------12--12---12-12-12---10--10---10-10-10---9--9---9-9-9---7--7---7-7-7----------

            
                         Thats all there is to it!
                Any suggestions would be greatly appreciated
            
Submit corrections

comments powered by Disqus
↑ Back to top | Calling Tabs for Stigmatized. Lyrics for acoustic guitar and electric guitar. 1 Tablatures and chords are parodies/interpretations of the original songs. You may use it for private study, scholarship, research or language learning purposes only