» » »

Calling, Man Over Board Tabs (ver.1)

Artists:  A B C D E F G H I J K L M N O P Q R S T U V W X Y Z # 

Man Over Board Tabs (ver.1)

Calling Tabs
Rating:
0/5 (0 votes)
Hard to play? Try these video lessons and learn fast.
                Intro Part1:
---------------------------------------
---------------------------------------
---------------------------------------
---------------------------------------
----5-3-2----5-3-2-----5-3-2-3-2-3-2---
-33-------33--------33-----------------

Intro Part2:

---------------------------------------------------
---------------------------------------------------
-------------------------555555555555555-----------
-55555555-77777777-5555555555555-------------------
-55555555-77777777-3333333333333-------------------
333333333-55555555---------------------------------

Riff1:
--------------------------------------
--------------------------------------
--------------------------------------
--0-2-3-0-2-3-2-0---0-2-3-2-0-2-3-2-0-
-3------------------0-----------------

Riff2:
--------------------------------------------
--------------------------------------------
--------------------------------------------
-5--------------------55--------------------
---2-3-5-5--5-7-3------2-3-5-5--5-7-5-3-----
--------------------------------------------

Verse Part1:
  ------------------------------------------------
  ------------------------------------------------
  ----------------------777777777777-555555555555-
  -555555555555--7777777777777--5555555555--------
  -555555555555--5555555555555--3333333333--------
  -333333333333-----------------------------------
PM(----------------------------------------------)

Verse Part2:
------------------------------
------------------------------
-12------7------9------5------
-12-x8--7-x8-9-x8--5-x8-------
-10------5------7------3------
------------------------------

----------------------------------------------
----------------------------------------------
-xx4---xx4---xx4---xx4---xx4---xx4---xx4---xx4-
-xx5---xx5---xx5---xx4---xx5---xx5---xx5---xx5-
-----------------------------------------------
-----------------------------------------------

Order:
Intro Part1 x2
Intro Part2 x6 (Let Chord Ring Out)
Riff1 x2
Riff2 x2
Verse Part1 x2
Verse Part2 x2
Riff1 x2
Intro Part2 x6
Riff1 x2
Riff3 x2 
Intro Part2(Let Chord Ring Out)
            

comments powered by Disqus
↑ Back to top | Calling Tabs for Man Over Board. Lyrics for acoustic guitar and electric guitar. Tablatures and chords are parodies/interpretations of the original songs. You may use it for private study, scholarship, research or language learning purposes only