array
(
    
'londoncalling1' => 'londoncalling1'
    'calling' 
=> 'calling'
)
London Calling Chords (ver. 2) by Calling @ AZ CHORDS.COM
» » »

London Calling Chords (ver.2)

Artists:  A B C D E F G H I J K L M N O P Q R S T U V W X Y Z # 

London Calling Chords (ver.2)

Calling
Rating:
3/5 (2 votes)

Hard to play? Try these video lessons and learn fast.
                                    London Calling - The Calling


Tuning: standard

   Em     F       G      D
e|-------------------------|
B|-8-----10------12------7-|
G|-9-----10------12------7-|
D|-9-----10------12------7-|
A|-7-----8-------10------5-|
E|-------------------------|

Intro:

e|-----------------------------------------------------------------|
B|-8-8-8-8----------8----------8----------8------------------------|
G|-9-9-9-9--7-9-9-9-9--7-9-9-9-9--7-9-9-9-9--7---------------------|
D|-9-9-9-9--7-9-9-9-9--7-9-9-9-9--7-9-9-9-9--7---------------------|
A|-7-7-7-7--7-7-7-7-7--7-7-7-7-7--7-7-7-7-7--7---------------------|
E|-----------------------------------------------------------------|

Verse:

Em                    F
London calling to the faraway towns
    G
Now that war's declared and battle coming down


It's the same in both verses...


Chorus:

    Em                     G
The ice age is coming, the sun is zooming in
 Em                     G
Meltdown expected, the wheat is growing thin
      Em                         G
The engines stopped running, but I have no fear
         Em                   D               Em (intro again)
'Cause London is drowning and I live by the river


(:
Cheers

| /  slide up
| \  slide down
| h  hammer-on
| p  pull-off
| ~  vibrato
| +  harmonic
| x  Mute note
            
Hard to play? Try these video lessons and learn fast. | Correct




comments powered by Disqus
↑ Back to top | Tablatures and chords are parodies/interpretations of the original songs. You may use it for private study, scholarship, research or language learning purposes only