» » »

Calling, Could It Be Any Harder Tabs (ver.2)

Artists:  A B C D E F G H I J K L M N O P Q R S T U V W X Y Z # 

Could It Be Any Harder Tabs (ver.2)

Calling Tabs
Rating:
5/5 (1 vote)
Could It Be Any Harder lessons Tabs too difficult? Try these video lessons and learn fast
                Band-The Calling
Song-Could It Be any Harder


You Have to do that in the hole Verse(Chorus:F5-G5-C5-A5)
F                      G                Cadd9       Am7
|--------------------------------0-----------0---------------------
|--------1---------------------3-----------1---------------0--------
|------0------------------------------------------------2-----------
|----3------------------3/5--------------------------2--------------
|---------------------------------------3---------------------------
|-------------------------------------------------------------------

"if I only had one more day" Part                                       
|------------0--------------------0---------------------------------
|-------------------------------------------------------------------
|--------2------------------2---------------------------------------
|-------------------------------------------------------------------
|----0----------------0---------------------------------------------
|-------------------------------------------------------------------


|-------------------------------------------------------------------
|--------5h6p5-3----------3h5---------------------------------------
|-----5h7--------5-4-5~------5-7-4----------------------------------
|---------------------------------7s5-5-----------------------------
|-------------------------------------------------------------------
|-------------------------------------------------------------------

|------7h8p7--------------------------------------------------------
|----8-------6h8-88--8s10-10-8-8-6h8-6-5----------------------------
|--7--------------------------------------7-7s5-5-------------------
|-------------------------------------------------------------------
|-------------------------------------------------------------------
|-------------------------------------------------------------------
         
I*I       I*I
 I*I     I*I
  I*I   I*I
   I*I_I*I
   I*I I*I  Ero
  I*I   I*I
 I*I     I*I
I*I       I*I
            

comments powered by Disqus
↑ Back to top | Calling Tabs for Could It Be Any Harder. Lyrics for acoustic guitar and electric guitar. Tablatures and chords are parodies/interpretations of the original songs. You may use it for private study, scholarship, research or language learning purposes only