>
 >
Adrienne 1

Adrienne 1 Guitar Tabs

Calling - Adrienne 1 chords, tabs, tablatures, lyrics

Guitar lessons | Add/correct | Request | Top 50 tabs Artists:  A B C D E F G H I J K L M N O P Q R S T U V W X Y Z 0-9

Adrienne 1 Guitar Tabs – Calling

CD, Sheet music, Poster

Do you like Adrienne 1? Share with your friends now
Bass TabsBass Tabs v2ChordsChords v2Chords v3TabsTabs v2Tabs v3Ukulele
Tuning: half-a-step down (Eb Ab Db Gb Bb Eb)

Intro:
Acoustic guitar:
e--3-3-3-3--2-2-2-0--0-0-0-0--0-0-2-2-----
b--3-3-3-3--3-3-3-3--3-3-3-3--3-3-3-3-----
g--0-0-0-0--2-2-2-2--0-0-0-0--0-0-2-2-----
d--2-2-2-2--0-0-0-0--x--------2-2-0-0-----
a--2-2-2-2----------2----2-2--3-3---------
e--0-0-0-0--------------------------------x4

Electric guitar:
e------------------------------------------
b-----/8-~-------------------5-------------
g----------7-7-~-----4-4-h-7------2b--0-0--
d------------------------------------------
a------------------------------------------
e------------------------------------------

e---------------------------------------------
b-----/8-~-------------------8--10b(12)r--(8)-
g----------7-7-~-----7-h-9--------------------
d---------------------------------------------
a---------------------------------------------
e---------------------------------------------

Verse:

e------3--2-2-2-h-3------0-----0--2----------------
b------3--3-3-3----3-----3-----3--3----------------
g------0--2-2------------0---0-0--2----------------
d--2-2----0-0------------x---3---0-----------------
a--2-2---------------2-2-----2---------------------
e--0-0---------------------------------------------

e------3--2-2-3-2-3---------0-----0--2-------------
b------3--3-3-3-3-3---------3-----3--3-------------
g------0--2-2-2-2-2---------0---0-0--2-------------
d--2-2----0-0-0-0-0---------x---3---0--------------
a--2-2------------------2-2-----2------------------
e--0-0---------------------------------------------x2

Bridge:

e----0-0-0-----0-0-0------0-0-0------Repeat twice (playing first
b----1-1-1-----1-1-1------1-1-1------ then second parts bellow)
g--2-2-2-2-----0-0-0------0-0-0------
d--2--------x----------2-------------
a--0--------2----------3-------------
e------------------------------------

first time:

e---2-2-2-2-2-3p2-2------
b---3-3-3-3-3-3-3-3------
g---2-2-2-2-2-2-2-2------
d---0-0-0-0-0-0-0-0-0----
a------------------------
e------------------------


second time:

e---2-2-2-2-2-2-2-2-2-2-2-3-3-3-3-2--------
b---3-3-3-3-3-3-3-3-3-3-3-3-3-3-3-3--------
g---2-2-2-2-2-2-2-2-2-2-2-2-2-2-2-2--------
d---0-0-0-0-0-0-0-0-0-0-0-0-0-0-0-0--------
a------------------------------------------
e------------------------------------------


Chorus: Same as intro.
Verse 2: same as first verse except for little fill:

and i had the last laugh......
	      (ph)

e----------------------------
b----------------------------
g-------------14---12~-------
d----------------------------
a----------------------------
e----------------------------

Repeat Chorus

Middle: 
e----------------------
b----------------------
g--5---7---9--11-------
d----s---s---s---------
a--3---5---7---9-------
e---------------------- x2

e-------------------------------
b-------------------------------
g--12----11---9----7----4-~-----
d-----s-----s---s----s----------
a--10----9----7----5----2-~-----
e-------------------------------

e-------------------------------
b-------------------------------
g--12----11----9-----7----16-~--
d-----s-----s----s------s-------
a--10----9-----7----5-----14-~--
e-------------------------------


then play bridge again and at the end small guitar part:

		    (pb)rp  rp  rp etc
e-------------------17(19)-(19)-(19)-(19)-(19)-(18)-(17)-
b--15-s-17~---17b----------------------------------------
g--------------------------------------------------------
d--------------------------------------------------------
a--------------------------------------------------------
e--------------------------------------------------------

Repeart Chours
Outro: As Alex begins to hit the high notes, so does the guitar..

    Adreinne......	   Long Before........
e--15~ 14~-----------------15~-14~---------------------------
b----------------------------------15 15h17-15---------------
g--------------14b-12~--------------------------14b-14b-12~--
d------------------------------------------------------------
a------------------------------------------------------------
e------------------------------------------------------------

Then just hit Em7 on the guitar and go into the outro solo:

Rhythm guitar: Em7 and D repeated

e-----------------------------------15-15----------
b-15b(17)-------------------15b(17)--(17)----------
g---------14b-14b-12~----------------------14b-12~-
d--------------------------------------------------
a--------------------------------------------------
e--------------------------------------------------

Then just hit Em7 on the guitar and go into the outro solo:

Rhythm guitar: Em7 and D repeated

e-----------------------------------15-15----------
b-15b(17)-------------------15b(17)--(17)----------
g---------14b-14b-12~----------------------14b-12~-
d--------------------------------------------------
a--------------------------------------------------
e--------------------------------------------------

e---------------------------------
b---------------------------------
g--------12-----------12-----15b--
d--12h14---14---12h14----14-------
a---------------------------------
e---------------------------------
and so forth to fade.......





Comments


Popular Calling tabs & chords
Final Answer Chords
One By One 1 Chords
Somebody Out There Chords
Thank You 1 Chords
Unstoppable Chords
Could It Be Any Harder 2 Tabs
Nothing's Changed Tabs
Stigmatized 2 Tabs
Thank You 2 Tabs
Dreaming In Red Ukulele


Song lyrics



↑ Back to top | Tablatures and chords are parodies/interpretations of the original songs. You may use it for private study, scholarship, research or language learning purposes only
© 2014 AZChords.com Contact us | Privacy policy | DMCA | Add/correct tabs | Request tabs | Top 50 tabs