» » »

Adrianne Tabs (ver.1)

Artists:  A B C D E F G H I J K L M N O P Q R S T U V W X Y Z # 

Adrianne Tabs (ver.1)

Calling
Rating:
0/5 (0 votes)

Hard to play? Try these video lessons and learn fast.
                PROPS GO TO: Me

This is tuned down half a tone to e flat but i will write it as normal because you can play it like that but will not sound good along side the record.
I will only write each chord once you work out the rythm:
e--3--2--0--3--2
B--3--3--3--3--3
G--0--2--4--0--2
D--2--0--4--2--0
A--2--x--2--3--x
E--x--x--x--x--x

and then:

e--------------------------
B--s8----------------------
G-----7---7h9-7------------
D-------9-------9s7--7p5---
A--------------------------
E--------------------------

e---------------------------
B--s8----------8--9b10r9--8-
G-----7---7h9---------------
D-------9-------------------
A---------------------------
E---------------------------
            
Hard to play? Try these video lessons and learn fast. | Correct




comments powered by Disqus
↑ Back to top | Tablatures and chords are parodies/interpretations of the original songs. You may use it for private study, scholarship, research or language learning purposes only