» » »

Final Song Tabs (ver.2)

Artists:  A B C D E F G H I J K L M N O P Q R S T U V W X Y Z # 

Final Song Tabs (ver.2)

Callalily
Rating:
5/5 (8 votes)

Tabs too difficult? Try these video lessons and learn fast.
                
Gtr Legend:
. - Palm muting
~ - Let ring

Standard Tuning


Intro Part 1:
Guitar 1
e|-----------------------------------------|
B|-----------------------------------------|
G|---77-------44---------------------------| 2x
D|---77--77---44---55----------------------|
A|---55--77---22---55----------------------|
E|-------55--------33----------------------|
     ..  ..   ..   ..

Guitar 2
e|----------------------------------------|
B|----------------------------------------|
G|-----7777----7777----7777----7777-------|
D|-----7777----7777----7777----7777-------| 2x
A|---55------55-------55-------55---------|
E|----------------------------------------|
    ......  ......  ......   .....


Intro Part 2:
Guitar 1
e|-----------------------------------------|
B|-----------------------------------------|
G|---7777----------4444--------------------| 2x
D|---7777---7777---4444---5555-------------|
A|---5555---7777---2222---5555-------------|
E|----------5555----------3333-------------|

Guitar 2
e|-------------------------------|
B|--777--------------------------| 
G|------7777-999-6666-7777~-----|  Repeat this many times
D|-------------------------------|
A|-------------------------------|
E|-------------------------------|


Verse:

Guitar 1
e|---------------------------------------|
B|---------------------------------------|
G|---7777777------------5555555----------|  2x
D|---7777777--77777777--5555555--555555--|
A|---5555555--77777777--3333333--555555--|
E|------------55555555-----------333333--|
     .......  ........  .......   ......

Guitar 2
e|-------------------------|
B|------------7----7-------|
G|-----------7--7-7--------|  repeat this many times
D|----------7----7---------|
A|-----5555----------------|
E|-------------------------|
       ....


Pre-Chorus:   "No more hot tears and pride.."

Both gtr:
e|----------------------|
B|----------------------|
G|----------------------|
D|--444444--555555------| 2x
A|--444444--555555------|
E|--222222--333333------|

Chorus: "Im moving on.."

Guitar 1
e|--------------------------------|
B|--------------------------------|
G|---7777----------4444-----------| 2x
D|---7777---7777---4444---5555----|
A|---5555---7777---2222---5555----|
E|----------5555----------3333----|


Guitar 2
e|-------------------------------|
B|--777--------------------------|  Do this many times..
G|------7777-9999-6666-7777~-----|
D|-------------------------------|
A|-------------------------------|
E|-------------------------------|


Pre-Verse: "Maybe ur were right.."
Both Guitars:
e|----------------------|
B|----------------------|
G|----------------------|
D|----9~---7~----5~-----| 2x
A|----9~---7~----5~-----|
E|----7~---5~----3~-----|

REPEAT Intro part2
REPEAT Verse
REPEAT Pre-chorus
REPEAT Chorus
REPEAT Pre-Verse (many strumming w/ palm mute)
REPEAT Intro part2
REPEAT Pre-Verse (w/ heavy palmm mute)
REPEAT Chorus

Last Chords:
e|-------|
B|-------|
G|-------|
D|---5~--|
A|---5~--|
E|---3~--|
            
Tabs too difficult? Try these video lessons and learn fast.


comments powered by Disqus
↑ Back to top | Tablatures and chords are parodies/interpretations of the original songs. You may use it for private study, scholarship, research or language learning purposes only