» » »

Final Song Bass tabs (ver.1)

Artists:  A B C D E F G H I J K L M N O P Q R S T U V W X Y Z # 

Final Song Bass tabs (ver.1)

Callalily
Rating:
5/5 (1 vote)

Tabs too difficult? Try these video lessons and learn fast.
                THE FINAL SONG – CALLALILY
Aiko

---------------------------------
Intro/Verse / Interlude

G-----------------------------|
D-----------------------------|
A--77777-------55555----------| 
E--------77777--------55555---|




Pre- Chorus

G-----------------------------R--|
D-----------------------------E--|
A-----44--------------44------A--|
E--77----55555-----77----555-7K--|

Chorus

G-----------------------------|
D-----------------------------|
A--77777-55555-44444----------|
E--------------------55555----|

Times 2 tow! Then… wla bass sa maybe…

Interlude
Verse 2
Pre-chorus
Instrumental/Interlude

“Maybe you…”
G---------------------|
D---------------------| 
A---44--------44------|
E------77-555---77-555| 

Chorus
            
Tabs too difficult? Try these video lessons and learn fast.


comments powered by Disqus
↑ Back to top | Tablatures and chords are parodies/interpretations of the original songs. You may use it for private study, scholarship, research or language learning purposes only