» » »

Take My Hand Tabs (ver.5)

Artists:  A B C D E F G H I J K L M N O P Q R S T U V W X Y Z # 

Take My Hand Tabs (ver.5)

Callalily
Rating:
0/5 (0 votes)

Hard to play? Try these video lessons and learn fast.
                this is my version of take my hands sana magustuhan nyo
AHH! iyan jeffrey first tab ko to wag mo me tawanan dahil tama lahat 2

INTRO:
e|-------------------------------|
B|--8--10-10--6--8-8--4--6-6--3--|2x
G|-------------------------------|
D|-------------------------------|
A|-------------------------------|
E|-------------------------------|

INTRO#2
e|-----------------------------------------------------------------------13--|
B|----13--13--13--13--13--13--13--13--13--13--13--13--13--13--13--13-----13--|
G|--14--14--14--14--15--15--15--15--14--14--14--14--15--15--15--15-----------|
D|---------------------------------------------------------------------------|
A|---------------------------------------------------------------------------|
E|---------------------------------------------------------------------------|

Your sky seems so cloudy

e|--13--|
B|--13--|

And i can barely see a single star

e|--13--|
B|--13--|

your eyes becomes teary

e|--13--|
B|--13--|

And find your self hiding in the dark

 G            A       G          A
You are not alone someones here to play your song!!!!!!

D                 G      Bm
take my hands well fly to the sky!!!!!!

D           G     Bm                G           A      D
close your eyes I'm at your side tomorrow's gonna be just fine

NOW DO THE SECOND INTRO COME ON FOLLOW ME NOW!!!!!!


e|-----------------------------------------------------------------------13--|
B|----13--13--13--13--13--13--13--13--13--13--13--13--13--13--13--13-----13--|
G|--14--14--14--14--15--15--15--15--14--14--14--14--15--15--15--15-----------|
D|---------------------------------------------------------------------------|
A|---------------------------------------------------------------------------|
E|---------------------------------------------------------------------------|


e|--13-------------------|
B|----13--11--10--11-13--|

Every things been bitter

e|--13-------------------|
B|----13--11--10--11-13--|

Like there was no reason to smile

e|--13-------------------|
B|----13--11--10--11-13--|

Peaces of dreams have been shattered

e|--13-------------------|
B|----13--11--10--11-13--|

And you feel like your being left behind


G             A      G           A
You are not alone someones here to play your song!!!!!

D                 G      Bm
take my hands well fly to the sky!!!!!!

D           G     Bm                G           A      D
close your eyes I'm at your side tomorrow's gonna be just fine


Base Guitar

A|--5--5--5--5|
take my hands

E|--5--5--5--5|
Close your eyes

E|--3--3--3--3|
Take my hands

E|--5--5--5--5|
Close your eyes

Then power chords letter D
strumming is down5x up down up down2x do that while singing take my hands close your 
do that 2x then

Bm
Well fly

D                 G      Bm
take my hands well fly to the sky!!!!!!

D           G                 Bm                G           A            D
I'll save you from this time I'm at your side tomorrow's gonna be just fine

The End hope you like it MUSIC fans bye the way MY name is jess but you can call me 
for short um gusto nyo ako maka bonding text me at 09226517446 sun cellular me ehh

well J.I.B band will live on the legacy sna sikat na kami pls lng lord 
            
Hard to play? Try these video lessons and learn fast. | Correct




comments powered by Disqus
↑ Back to top | Tablatures and chords are parodies/interpretations of the original songs. You may use it for private study, scholarship, research or language learning purposes only