>
 >
Take My Hand 2

Take My Hand 2 Guitar Tabs

Callalily - Take My Hand 2 chords, tabs, tablatures, lyrics

Guitar lessons | Add/correct | Request | Top 50 tabs Artists:  A B C D E F G H I J K L M N O P Q R S T U V W X Y Z 0-9

Take My Hand 2 Guitar Tabs – Callalily

CD, Sheet music, Poster

Do you like Take My Hand 2? Share with your friends now
Bass TabsChordsChords v2Chords v3TabsTabs v2Tabs v3Tabs v4Tabs v5Ukulele
Album:Destination XYZ

For your questions or suggestions,just post in friendster comment,PM or mail me.
 
Gtr.Legends:
~ - LET IT RING
. - PALM MUTING
h - HAMMER-ON

Gtr.Tuning:Standard(Normal)              

Intro prt.1:
Gtr.1
e|-------------------|
B|-------------------|
G|-999999999999999---|
D|-------------------|
A|-------------------|
E|-------------------|

Gtr.2
e|-------------------------------------------------------|
B|-------------------------------------------------------|     
G|-999-1111-77-99-6-7--44444---999-1111-7-9--6-7--4444---| 
D|-------------------------------------------------------|
A|-------------------------------------------------------|
E|-------------------------------------------------------|

Intro prt.2:
e|----------------------------------|
B|----------------------------------|
G|-77777-----------------------7~---|
D|-77777--77777--55555--77777--7~---|
A|-55555--77777--55555--77777--5~---|
E|--------55555--33333--55555-------|

Gtr.2:
e|---------------------------------------------|
B|---10---10---10---10-----10----10----10------|
G|-11---11---11---11----12----12----12----12---| 2x
D|---------------------------------------------|
A|---------------------------------------------|
E|---------------------------------------------|

Verse 1:Your sky seem...
Gtr.1:
e|----------------------------|
B|----------------------------|
G|-7777--7777-----------------|
D|-7777--7777--55555--77777---|
A|-5555--4444--55555--77777---|
E|-------------33333--55555---|

Gtr.2:
e|----10~---|
B|-10-------|
G|----------|
D|----------|
A|----------|
E|----------|

Pre-Chorus:You are not alone...
e|----------------|
B|----------------|
G|----------------| 2x
D|-55555--77777---|
A|-55555--77777---|
E|-33333--55555---|

Chorus:Take my hand...
e|------------------------------|
B|------------------------------|
G|-77777---------44444--22222---| 2x
D|-77777--55555--44444--22222---|
A|-55555--55555--22222--00000---|
E|--------33333-----------------|

Pre-Verse 2:
Gtr.1
e|------------------------------|
B|------------------------------|
G|-77777------------------------|
D|-77777--55555--77777--55555---|
A|-55555--55555--77777--55555---|
E|--------33333--55555--33333---|

Gtr.2:Play Intro prt.2

Verse 2:Everything's been bitter...
Gtr.1:Play Verse 1
Gtr.2:
e|----10----------------|
B|-10----10-8-7-8-10----|
G|----------------------| Repeat Many Times...
D|----------------------| 
A|----------------------|
E|----------------------|


Repeat Pre-Chorus:
Repeat Chorus:

Bridge prt.1(Gtr.Solo):
Gtr.1:Play Pre-Verse 2:
Gtr.2:
e|-------------------------      -------------------------------------------|
B|-------------------------      -------------------------------------------|
G|-11/12--12-12/14-12-11--- 2x   --11/12-12-9~---11/12--12-12/14-12-11-7~---|
D|------------------------- Then --------------------------------------7~---|
A|-------------------------      --------------------------------------5~---|
E|-------------------------      -------------------------------------------|

Bridge prt.2:Take my hand,close your eyes...
Bass:
G|---------------------------------------------------------------------|
D|---------------------------------------------------------------------|
A|-5-5-5-5-----------------------------5-5-5-5-------------------------|
E|----------5-5-5-5--3-3-3-3--5-5-5-5-----------5-5-5-5--3-3-3-3--5~---|
   . . . .  . . . .  . . . .  . . . .  . . . .  . . . .  . . . .  .

Gtr.1 and 2:Play Pre-Verse 2(With Heavy Palm Muting):

Repeat Chorus:

Last Chord:
e|------|
B|------|
G|-7~---|
D|-7~---|
A|-5~---|
E|------|

End...

Take My Hand Lyrics

Verse 1:
Your sky seem so cloudy
I can barely see a single star
Your eyes become teary
And found yourself hiding in the dark

Pre-Chorus:
You are not alone
Someone's here to play your song

Chorus:
Take my hand
We'll fly to the sky
Close your eyes im at your side
Tomorrow's gonna be just fine

Verse 2:
Everything's been bitter
Like there was no reason to smile
Pieces of dreams have been shattered
And you feel like you're being left behind

Repeat Pre-Chorus:
Repeat Chorus:


Bridge:
Take my hand
Close your eyes
Take my hand
close your eyes
Take my hand
Close your eyes
We'll fly


Repeat Chorus:





Comments


Popular Callalily tabs & chords
Buhos Ng Ulan Chords
Hintay 1 Chords
Right Chords
Yakap Chords
Fake Lullabies Tabs
Stars 5 Tabs
Insane Ukulele
Minsan Ukulele
Muli Ukulele
Pawiin Ukulele


Song lyrics



↑ Back to top | Tablatures and chords are parodies/interpretations of the original songs. You may use it for private study, scholarship, research or language learning purposes only
© 2014 AZChords.com Contact us | Privacy policy | DMCA | Add/correct tabs | Request tabs | Top 50 tabs