>
 >
Take My Hand

Take My Hand Guitar Tabs

Callalily - Take My Hand chords, tabs, tablatures, lyrics

Guitar lessons | Add/correct | Request | Top 50 tabs Artists:  A B C D E F G H I J K L M N O P Q R S T U V W X Y Z 0-9

Take My Hand Guitar Tabs – Callalily

CD, Sheet music, Poster

Do you like Take My Hand? Share with your friends now
Bass TabsChordsChords v2Chords v3TabsTabs v2Tabs v3Tabs v4Tabs v5Ukulele
Im 97% percent accurate about this tab...
Here it goes!!!
To all callalistas like me!

Song title: Take My Hand

drums intro...
then...

gtr.1
e---------------------------------------e
B------7--7-------5--5-------3--3--3----B
G--9----------7----------5------------4-G
D---------------------------------------D
A---------------------------------------A
E---------------------------------------E


e--5---5---5---5------5---5---5---5---5---5---5---5---5---5---5---------10--e
B----7---7---7---7--8---8---8---8---7---7---7---7---8---8---8---8-----10----B
G---------------------------------------------------------------------------G
D---------------------------------------------------------------------------D
A---------------------------------------------------------------------------A
E---------------------------------------------------------------------------E


gtr.2
e----------------------------------e
B----------------------------------B
G-77777-----------------------7~---G
D-77777--77777--55555--77777--7~---D
A-55555--77777--55555--77777--5~---A
E--------55555--33333--55555-------E

Verse1
the skies seem so cloudy
i can barely see a single star
your eyes become teary
and you find yourself hiding in the dark

gtr.2
e----------------------------e
B----------------------------B
G-7777--7777-----------------G
D-7777--7777--55555--77777---D
A-5555--4444--55555--77777---A
E-------------33333--55555---E

gtr.1
e------10--e
B---10-----B
G----------G
D----------D
A----------A
E----------E

Bass (for whole song... i think, not sure)
G|---------------------------------------------------------------------G
D|---------------------------------------------------------------------D
A|-5-5-5-5-----------------------------5-5-5-5-------------------------A
E|----------5-5-5-5--3-3-3-3--5-5-5-5-----------5-5-5-5--3-3-3-3--5~---E

pre-chorus
you are not alone
someone's here to play your song

e----------------e
B----------------B
G----------------G 2x
D-55555--77777---D
A-55555--77777---A
E-33333--55555---E


Chorus
Take my hand...
gtr.2
E------------------------------e
B------------------------------B
G-77777---------44444--22222---G 2x
D-77777--55555--44444--22222---D
A-55555--55555--22222--00000---A
E--------33333-----------------E

Pre-Verse 2:
Gtr.2
e|------------------------------e
B|------------------------------B
G|-77777------------------------G
D|-77777--55555--77777--55555---D
A|-55555--55555--77777--55555---A
E|--------33333--55555--33333---E

Gtr.1
e--5---5---5---5------5---5---5---5---5---5---5---5---5---5---5----------e
B----7---7---7---7--8---8---8---8---7---7---7---7---8---8---8---8--------B
G------------------------------------------------------------------------G
D------------------------------------------------------------------------D
A------------------------------------------------------------------------A
E------------------------------------------------------------------------E


Verse2
Everything's been bitter...
Gtr.2-Play Verse 1
Gtr.1
e|----10----------------e
B|-10----10-8-7-8-10----B
G|----------------------G Repeat
D|----------------------D 
A|----------------------A
E|----------------------E


Repeat Pre-Chorus:
Repeat Chorus:

Bridge prt.1(Gtr.Solo)
Gtr.1-Play Pre-Verse2
Gtr.2
e--------------------------------e
B--------------------------------B
G-11-12--11--9----11-12-11-12/14-G
D--------------------------------D
A--------------------------------A
E--------------------------------E

Bridge prt.2:Take my hand,close your eyes...
Bass:
G|---------------------------------------------------------------------G
D|---------------------------------------------------------------------D
A|-5-5-5-5-----------------------------5-5-5-5-------------------------A
E|----------5-5-5-5--3-3-3-3--5-5-5-5-----------5-5-5-5--3-3-3-3--5~---E

Gtr.1 and 2-Play Pre-Verse2(With Heavy Palm Muting)

Repeat Chorus

Last Chord
e|------e
B|------B
G|-7~---G
D|-7~---D
A|-5~---A
E|------E





Comments


Popular Callalily tabs & chords
Magbalik 1 Bass Tabs
Hkm 2 Chords
Take My Hand Chords
Tunay Na Ligaya Chords
Whom Shall I Fear Chords
A Starry Night Tabs
Gabay Tabs
Magbalik 9 Tabs
Trapped Inside The Moment Tabs
Muli Ukulele


Song lyrics



↑ Back to top | Tablatures and chords are parodies/interpretations of the original songs. You may use it for private study, scholarship, research or language learning purposes only
© 2014 AZChords.com Contact us | Privacy policy | DMCA | Add/correct tabs | Request tabs | Top 50 tabs