» » »

Star Tabs (ver.6)

Artists:  A B C D E F G H I J K L M N O P Q R S T U V W X Y Z # 

Star Tabs (ver.6)

Callalily
Rating:
0/5 (0 votes)

Tabs too difficult? Try these video lessons and learn fast.
                Stars
Part: Adlib
Tuning: Standard
Note: simplified lang po to...

Adlib

e|---------------------------------------------------|
B|------------------------10b11r10-8-----------------|
G|---------7--7/9-12-9-12-------------9--------------|
D|-----7/9--9----------------------------------------|
A|--10-----------------------------------------------|
E|---------------------------------------------------|


e|---------------------------------------------------|
B|-----------------------------8/10\8----------------|
G|--------------------7/9--7h9--------7/9\7----------|
D|-----------8/10-9-7--------------------------------|
A|--9/10-9-7-----------------------------------------|
E|---------------------------------------------------|

sana po magustuhan niyo...
paki rate nalang po :)
sana maaprove...
            
Tabs too difficult? Try these video lessons and learn fast.


comments powered by Disqus
↑ Back to top | Tablatures and chords are parodies/interpretations of the original songs. You may use it for private study, scholarship, research or language learning purposes only