>
 >
Pasan 2

Pasan 2 Guitar Tabs

Callalily - Pasan 2 chords, tabs, tablatures, lyrics

Guitar lessons | Add/correct | Request | Top 50 tabs Artists:  A B C D E F G H I J K L M N O P Q R S T U V W X Y Z 0-9

Pasan 2 Guitar Tabs – Callalily

CD, Sheet music, Poster

Do you like Pasan 2? Share with your friends now
Bass TabsChordsChords v2TabsTabs v2Tabs v3Tabs v4Tabs v5Tabs v6Ukulele

Intro part 1:
Guitar 1:
e|-----------------|-----------------|
B|-----------------|-----------------|
G|--9~---7~---5~~--|--9~---7~---5~~--|
D|--9~---7~---5~~--|--9~---7~---5~~--|
A|--7~---5~---3~~--|--7~---5~---3~~--|
E|-----------------|-----------------|
Guitar 2:
(continued)
e|------------------------------------|
B|------------------------------------|
G|-4444/55/77--4444/55/77---12121212--| 
D|-xxxx/xx/xx--xxxx/xx/xx---xxxxxxxx--| 
A|-2222/33/55--2222/33/55---10101010--| 
E|------------------------------------|

Intro part 2:
Guitar 1:
e|----------------------------------------|
B|----------------------------------------|
G|--99999999--77777777--5555555555555555--|
D|--99999999--77777777--5555555555555555--| 2x
A|--77777777--55555555--3333333333333333--|
E|----------------------------------------|
Guitar 2:(tremolo picking)
e|-------10---------------------|
B|---7-8----8-7---/12-10-8~-----|
G|--------------7---------------| 2x
D|------------------------------|
A|------------------------------|
E|------------------------------|

Verse:
Both Guitars:
e|-----------------|-----------------|
B|-----------------|-----------------|
G|--9~---7~---5~~--|--9~---7~---5~~--|
D|--9~---7~---5~~--|--9~---7~---5~~--|
A|--7~---5~---3~~--|--7~---5~---3~~--|
E|-----------------|-----------------|
(continued)
e|----------------------------------------|
G|------------77777777--5555555555555555--|
D|--55555555--77777777--5555555555555555--| 2x
A|--55555555--55555555--3333333333333333--| 
E|--33333333------------------------------|
    ........  ........  ................

Refrain:
e|-------------|-------------|
B|-------------|-------------|
G|--4444-5555--|--4444-5555--|
D|--4444-5555--|--4444-5555--|
A|--2222-3333--|--2222-3333--|
E|-------------|-------------|
(continued)
e|-----------------|-----------------|
B|-----------------|-----------------|
G|--4444-55555555--|--7777777777777--|
D|--4444-55555555--|--7777777777777--|
A|--2222-33333333--|--5555555555555--|
E|-----------------|-----------------|

Chorus:
Guitar 1:
e|----------------------------------------|
B|----------------------------------------|
G|------------77777777--5555555555555555--|
D|--55555555--77777777--5555555555555555--| 
A|--55555555--55555555--3333333333333333--|
E|--33333333------------------------------|
(continued)
e|----------------------------------------|
B|----------------------------------------|
G|--99999999--77777777--5555555555555555--|
D|--99999999--77777777--5555555555555555--|
A|--77777777--55555555--3333333333333333--|
E|----------------------------------------|
Guitar 2:
e|------------------------------------|
B|------------------------------------|
G|-4444/55/77--4444/55/77---12121212--| 
D|-xxxx/xx/xx--xxxx/xx/xx---xxxxxxxx--| 2x
A|-2222/33/55--2222/33/55---10101010--| 
E|------------------------------------|

Interlude:
Guitar 1:
e|----------------------------------------|
B|----------------------------------------|
G|--99999999--77777777--5555555555555555--|
D|--99999999--77777777--5555555555555555--| 2x
A|--77777777--55555555--3333333333333333--|
E|----------------------------------------|
Guitar 2:(tremolo picking)
e|-------10---------------------|
B|---7-8----8-7---/12-10-8~-----|
G|--------------7---------------| 2x
D|------------------------------|
A|------------------------------|
E|------------------------------|

Verse:
Both Guitars:
e|-----------------|-----------------|
B|-----------------|-----------------|
G|--9~---7~---5~~--|--9~---7~---5~~--|
D|--9~---7~---5~~--|--9~---7~---5~~--|
A|--7~---5~---3~~--|--7~---5~---3~~--|
E|-----------------|-----------------|
(continued)
e|----------------------------------------|
G|------------77777777--5555555555555555--|
D|--55555555--77777777--5555555555555555--| 2x
A|--55555555--55555555--3333333333333333--|
E|--33333333------------------------------|
    ........  ........  ................

Refrain:
e|-------------|-------------|
B|-------------|-------------|
G|--4444-5555--|--4444-5555--|
D|--4444-5555--|--4444-5555--|
A|--2222-3333--|--2222-3333--|
E|-------------|-------------|
(continued)
e|-----------------|-----------------|
B|-----------------|-----------------|
G|--4444-55555555--|--7777777777777--|
D|--4444-55555555--|--7777777777777--|
A|--2222-33333333--|--5555555555555--|
E|-----------------|-----------------|

Chorus:
Guitar 1:
e|----------------------------------------|
B|----------------------------------------|
G|------------77777777--5555555555555555--|
D|--55555555--77777777--5555555555555555--| 
A|--55555555--55555555--3333333333333333--|
E|--33333333------------------------------|
(continued)
e|----------------------------------------|
B|----------------------------------------|
G|--99999999--77777777--5555555555555555--|
D|--99999999--77777777--5555555555555555--|
A|--77777777--55555555--3333333333333333--|
E|----------------------------------------|
Guitar 2:
e|------------------------------------|
B|------------------------------------|
G|-4444/55/77--4444/55/77---12121212--| 
D|-xxxx/xx/xx--xxxx/xx/xx---xxxxxxxx--| 2x
A|-2222/33/55--2222/33/55---10101010--| 
E|------------------------------------|

Adlib:
Guitar 1:
e|----------------------------------------|
B|----------------------------------------|
G|--99999999--77777777--5555555555555555--|
D|--99999999--77777777--5555555555555555--| 2x
A|--77777777--55555555--3333333333333333--|
E|----------------------------------------|
Guitar 2:
e|----------------------------------------------------------------|
B|---12121212-10101010-8888--------------------101010-121212-888--|
G|---------------------------9999-7777----------------------------|
D|-------------------------------------5h7-5~---------------------|
A|----------------------------------------------------------------|
E|----------------------------------------------------------------|
(continued)
e|----------------------------------------------------|
B|---12121212-10101010-8888---------------------------|
G|---------------------------9999-7777---8--8--8--8~--|
D|--------------------------------------9--7--7--7----|
A|----------------------------------------------------|
E|----------------------------------------------------|

Bridge:
e|------------------------|--------------------------------------|
B|------------------------|--------------------------------------|
G|--------4444--55555555--|--------4444--55555555--777777777777--|
D|--7777--4444--55555555--|--7777--4444--55555555--777777777777--|
A|--7777--2222--33333333--|--7777--2222--33333333--555555555555--|
E|--5555------------------|--5555--------------------------------|

Chorus:
Guitar 1:
e|-------------------------------------------|
B|----P--------------------------------------|
G|----A----------77777777--5555555555555555--|
D|--5-U-guitar2--77777777--5555555555555555--|
A|--5-S-enters---55555555--3333333333333333--|
E|--3-E--------------------------------------|
(continued)
e|----------------------------------------|
B|----------------------------------------|
G|--99999999--77777777--5555555555555555--|
D|--99999999--77777777--5555555555555555--|
A|--77777777--55555555--3333333333333333--|
E|----------------------------------------|
(continued)
e|----------------------------------------|
B|----------------------------------------|
G|------------77777777--5555555555555555--|
D|--55555555--77777777--5555555555555555--| 
A|--55555555--55555555--3333333333333333--|
E|--33333333------------------------------|
(continued)
e|----------------------------------------|
B|----------------------------------------|
G|--99999999--77777777--5555555555555555--|
D|--99999999--77777777--5555555555555555--|
A|--77777777--55555555--3333333333333333--|
E|----------------------------------------|
Guitar 2:
e|------------------------------------|
B|------------------------------------|
G|-4444/55/77--4444/55/77---12121212--| 
D|-xxxx/xx/xx--xxxx/xx/xx---xxxxxxxx--| 4x
A|-2222/33/55--2222/33/55---10101010--| 
E|------------------------------------|

Outro:
Guitar 1:
e|----------------------------------------|
B|----------------------------------------|
G|--99999999--77777777--5555555555555555--|
D|--99999999--77777777--5555555555555555--| 2x
A|--77777777--55555555--3333333333333333--|
E|----------------------------------------|
Guitar 2:(tremolo picking)
e|-------10---------------------|
B|---7-8----8-7---/12-10-8~-----|
G|--------------7---------------| 2x
D|------------------------------|
A|------------------------------|
E|------------------------------|

Then...
e|------------------------------------|
B|------------------------------------|
G|-4444/55/77--4444/55/77---12121212--| 
D|-xxxx/xx/xx--xxxx/xx/xx---xxxxxxxx--| 
A|-2222/33/55--2222/33/55---10101010--| 
E|------------------------------------|

enjoy p0h......





Comments


Popular Callalily tabs & chords
Bisyo Chords
Magbalik Chords
Sanctuary 3 Tabs
Stars Tabs
Stars 2 Tabs
Final Song Ukulele
Hkm Ukulele
Lumbay Ukulele
Nagagalit Ukulele
Pansamantala Ukulele


Song lyrics



↑ Back to top | Tablatures and chords are parodies/interpretations of the original songs. You may use it for private study, scholarship, research or language learning purposes only
© 2014 AZChords.com Contact us | Privacy policy | DMCA | Add/correct tabs | Request tabs | Top 50 tabs