>
 >
Muli 1

Muli 1 Guitar Tabs

Callalily - Muli 1 chords, tabs, tablatures, lyrics

Guitar lessons | Add/correct | Request | Top 50 tabs Artists:  A B C D E F G H I J K L M N O P Q R S T U V W X Y Z 0-9

Muli 1 Guitar Tabs – Callalily

CD, Sheet music, Poster

Do you like Muli 1? Share with your friends now
ChordsTabsTabs v2Ukulele

For any comments and Suggestion:


              I Hope you like my tab......this is the new song of cALLALILy
Intro:
Gtr.1
e|--------------|
B|--------------|
G|--------------| 2x
D|-9~--7~--5~---|
A|-7~--5~--3~---|
E|--------------|

Gtr.2
e|-3^---------- -3-5-3^---|
B|-----5-3-5--- ----------|
G|------------- 3x -------| 2x
D|------------- Then -----|
A|------------- ----------|
E|------------- ----------|

Verse 1:Nakakunot na naman...
Gtr.1
e|----------------------|
B|----------------------|
G|----------------------| 4x
D|-9999-7777-55555555---|
A|-7777-5555-33333333---|
E|----------------------|
.... .... ........

Gtr.2
e|-----6-8--------6-8-7---|
B|-3h5-------3h5----------|
G|------------------------| Listen to the song for timing...
D|------------------------|
A|------------------------|
E|------------------------|

Chorus:Sana bukas magkita...
Gtr.1
e|----------------------|
B|----------------------|
G|----------------------| 2x
D|-9999-7777-55555555---|
A|-7777-5555-33333333---|
E|----------------------|

Gtr.2
e|-------------------------------|
B|-5^-5^---7^-7^---8^-8^-8^-8^---|
G|-------------------------------| 2x
D|-------------------------------|
A|-------------------------------|
E|-------------------------------|

Magyayakapan,tapos na ang....
Gtr.1
e|-------------------------------------|
B|-------------------------------------|
G|-----9~-------7~-------5~-------5~---|
D|-999-9~---777-7~---555-5~---555-5~---|
A|-777-7~---555-5~---333-3~---333-3~---|
E|-------------------------------------|
... ... ... ...

Gtr.2
e|----10/12^---12/14^---12/14^---15^--15^--15^--14/15^---12^--12^--14^--14^--14/15^--14/15^--17^|
B|----------------------------------------------------------------------------------------------|
G|-9^-------------------------------------------------------------------------------------------|
D|----------------------------------------------------------------------------------------------|
A|----------------------------------------------------------------------------------------------|
E|----------------------------------------------------------------------------------------------|

Repeat Intro

Verse 2:Hindi na naman ako...
Play Verse 1

Repeat Chorus:

Bridge:
e|------------- ------------------|
B|------------- ------------------|
G|------------- 2x ---------------|
D|-9~--7~--5~-- Then -555555--9---|
A|-7~--5~--3~-- ------333333--7---|
E|------------- ------------------|
...... .

Gtr. while Bass Solo Playing
e|-------|
B|-------|
G|-9~^---|
D|-9~^---|
A|-7~^---|
E|-------|

Halika ka na dito...
Gtr.1
e|------------------------------------|
B|------------------------------------|
G|------------------------------------|
D|-99--77--55----99--77--55---55555---|
A|-77--55--33----77--55--33---33333---|
E|------------------------------------|
.. .. .. .. .. .. .....

Gtr.2
e|---------------------------------|
B|---------------------------------|
G|---------------------------------| Low to High Scratching
D|-xxxxxxxxxxxxxxxxxxxxxxxxxxxxx---|
A|-xxxxxxxxxxxxxxxxxxxxxxxxxxxxx---|
E|-xxxxxxxxxxxxxxxxxxxxxxxxxxxxx---|
^^^^^^^^^^^^^^^^^^^^^^^^^^^^^

Repeat Chorus:

End...





Comments


Popular Callalily tabs & chords
Sanctuary Chords
Stars 3 Chords
Yakap Chords
You I Chords
Magbalik 3 Tabs
Magbalik 9 Tabs
Bisyo Ukulele
Lapit Ukulele
Minsan Ukulele
You I Ukulele


Song lyrics



↑ Back to top | Tablatures and chords are parodies/interpretations of the original songs. You may use it for private study, scholarship, research or language learning purposes only
© 2014 AZChords.com Contact us | Privacy policy | DMCA | Add/correct tabs | Request tabs | Top 50 tabs