>
 >
Muli

Muli Guitar Tabs

Callalily - Muli chords, tabs, tablatures, lyrics

Guitar lessons | Add/correct | Request | Top 50 tabs Artists:  A B C D E F G H I J K L M N O P Q R S T U V W X Y Z 0-9

Muli Guitar Tabs – Callalily

CD, Sheet music, Poster

Do you like Muli? Share with your friends now
ChordsTabsTabs v2Ukulele
Song Name: Muli
Band Name: Callalily


Cell no. : no!

Text or Email for corrections or suggestions

this tab is about 92% sure...

PLEASE RATE!!!

hi sa mahal na mahal kong si Hosea Olga Baltazar...

:) mahal na mahal po kita!

UPDATED!:
------------------------------------------------------------||
07-16-2007 - Fixed Up the Bass Solo and Most Guitar 1 parts

Intro: Em - D - C (2x)

*note: Guitar 2 uses a lot of WAH...

Guitar 1: (do twice)
e|-------------------------------------------|
B|-------------------------------------------|
G|---9~~--------7~~--------5~~---------------|
D|---9~~--------7~~--------5~~---------------|
A|---7~~--------5~~--------3~~---------------|
E|-------------------------------------------|

Guitar 2:
e|-------------------------------------------------------|
B|--/8-8-------/8-8---------/8-8---------8-8h10-8--------|
G|-------9-7h9------9-9-7h9------9-7-7h9----------9-(7)--|
D|-------------------------------------------------------|
A|-------------------------------------------------------|
E|-------------------------------------------------------|
(cont'd)
e|-----------------------------------------------------------|
B|--/8-8---------/8-8---------/8-8---------8-10s12-10-8h10---|
G|-------9-9-7h9------9-9-7h9------9-7-7h9-------------------|
D|-----------------------------------------------------------|
A|-----------------------------------------------------------|
E|-----------------------------------------------------------|


Verse 1:

Guitar 1: (do four times) ^_^
e|-----------------------------------------------------------------------|
B|-----------------------------------------------------------------------|
G|---9-9-9-9-9-9-9-9--7-7-7-7-7-7-7-7--5-5-5-5-5-5-5-5-5-5-5-5-5-5--7-7--|
D|---9-9-9-9-9-9-9-9--7-7-7-7-7-7-7-7--5-5-5-5-5-5-5-5-5-5-5-5-5-5--7-7--|
A|---7-7-7-7-7-7-7-7--5-5-5-5-5-5-5-5--3-3-3-3-3-3-3-3-3-3-3-3-3-3--5-5--|
E|-----------------------------------------------------------------------|
PM   . . . . . . . .  . . . . . . . .  . . . . . . . . . . . . . .  . .
Guitar 2:
e|------7---------------8---7------7*-7h8---7--------7*-7-8-7*-7-------|
B|--------10-8-8-------------------------------------------------------|
G|--7h9-----------7h9-9---9----7h9--------9---9--7h9-------------9-----|
D|---------------------------------------------------------------------|
A|---------------------------------------------------------------------|
E|---------------------------------------------------------------------|
(cont'd)
e|------7*-7-8---7--------7*-7-8---7---------7*-7-8---7--------7*-7-8-7*-7----|
B|----------------------------------------------------------------------------|
G|--7h9--------9---9--7h9--------9---9--7h9---------9---9--7h9-------------9--|
D|----------------------------------------------------------------------------|
A|----------------------------------------------------------------------------|
E|----------------------------------------------------------------------------|
(cont'd)
e|------7*-7-8---7--------7*-7-8---7---------7*-7-8---7--------7*-7-8-7*-7----|
B|----------------------------------------------------------------------------|
G|--7h9--------9---9--7h9--------9---9--7h9---------9---9--7h9-------------9--|
D|----------------------------------------------------------------------------|
A|----------------------------------------------------------------------------|
E|----------------------------------------------------------------------------|
(cont'd)                                                  /-release PM slowly-/
e|------7*-7-8---7--------7*-7-8---7---------7*-7-8---7---------------------|
B|--------------------------------------------------------------------------|
G|--7h9--------9---9--7h9--------9---9--7h9---------9---9--5-5-5-5-5-5-5-5--|
D|---------------------------------------------------------5-5-5-5-5-5-5-5--|
A|---------------------------------------------------------3-3-3-3-3-3-3-3--|
E|--------------------------------------------------------------------------|
PM                                                         . . . . . . . . 

Chorus:

Guitar 1:

e|----------------------------------------------------------------------|
B|----------------------------------------------------------------------|
G|---9-9-9-9-9-9-9-9--7-7-7-7-7-7-7-7--5-5-5-5-5-5-5-5-5-5-5-5-5-5-5-5--|
D|---9-9-9-9-9-9-9-9--7-7-7-7-7-7-7-7--5-5-5-5-5-5-5-5-5-5-5-5-5-5-5-5--|
A|---7-7-7-7-7-7-7-7--5-5-5-5-5-5-5-5--3-3-3-3-3-3-3-3-3-3-3-3-3-3-3-3--|
E|----------------------------------------------------------------------| 2x

e|----------------------------------------------------------|
B|----------------------------------------------------------|
G|---9-9-9-9--9~---7-7-7-7--7~---5-5-5-5--5~-5-5-5-5--5~----|
D|---9-9-9-9--9~---7-7-7-7--7~---5-5-5-5--5~-5-5-5-5--5~----|
A|---7-7-7-7--7~---5-5-5-5--5~---3-3-3-3--3~-3-3-3-3--3~----|
E|----------------------------------------------------------| 2x
PM   . . . .      . . . .        . . . .     . . . .   Guitar 2: *Use Wah pedal here
e|-------------------------------------------------------------------------|
B|-------------------------------------------------------------------------|
G|---9-9-9-9-9-9-9-9-1111111111111111--12121212121212121212121212121212----|
D|---x-x-x-x-x-x-x-x--x-x-x-x-x-x-x-x---x-x-x-x-x-x-x-x-x-x-x-x-x-x-x-x----|
A|---7-7-7-7-7-7-7-7--9-9-9-9-9-9-9-9--10101010101010101010101010101010----|
E|-------------------------------------------------------------------------|
(cont'd)
e|---------------------------------------------------15~~~~~~~~~~~~~~~-----|
B|-------------------------------------------------------------------------|
G|---9~~~~~~~~~~~~~~-11~~~~~~~~~~~~~~--12~~~~~~~~~~~-----------------------|
D|-------------------------------------------------------------------------|
A|-------------------------------------------------------------------------|
E|-------------------------------------------------------------------------|
(cont'd)
e|---------14~~~--------------14~~~~~~---------------15~~~~~~~~~~~~~~~-----|
B|-------------------------------------------------------------------------|
G|-------------------11~~~~~~----------12~~~~~~~~~~~-----------------------|
D|---14~~~-----------------------------------------------------------------|
A|-------------------------------------------------------------------------|
E|-------------------------------------------------------------------------|
(cont'd)
e|---12--12--14--14--15--15--15--17-15-14-15-----|
B|-----------------------------------------------|
G|-----------------------------------------------|
D|-----------------------------------------------|
A|-----------------------------------------------|
E|-----------------------------------------------|
(lahat ng note d2 ay sustained, let ring... ^_^)


Interlude: (repeat Intro; may konting variation)

(same Guitar 1, but Guitar 2 changes to this...)
Guitar 2:
e|-------------------------------------------------------|
B|--/8-8-------/8-8---------/8-8---------8-8h10-8--------|
G|-------9-7h9------9-9-7h9------9-7-7h9----------9-(7)--|
D|-------------------------------------------------------|
A|-------------------------------------------------------|
E|-------------------------------------------------------|
(cont'd)
e|-----------------------------------------------------------|
B|--/8-8---------/8-8---------/8-8---------8-10s12-10-8h10---|
G|-------9-9-7h9------9-9-7h9------9-7-7h9-------------------|
D|-----------------------------------------------------------|
A|-----------------------------------------------------------|
E|-----------------------------------------------------------|

Verse 2: 
Guitar 1: (twice only) ^_^
e|-----------------------------------------------------------------------|
B|-----------------------------------------------------------------------|
G|---9-9-9-9-9-9-9-9--7-7-7-7-7-7-7-7--5-5-5-5-5-5-5-5-5-5-5-5-5-5--7-7--|
D|---9-9-9-9-9-9-9-9--7-7-7-7-7-7-7-7--5-5-5-5-5-5-5-5-5-5-5-5-5-5--7-7--|
A|---7-7-7-7-7-7-7-7--5-5-5-5-5-5-5-5--3-3-3-3-3-3-3-3-3-3-3-3-3-3--5-5--|
E|-----------------------------------------------------------------------|2x
PM   . . . . . . . .  . . . . . . . .  . . . . . . . . . . . . . .  . .
(cont'd)
e|-------------------------------------------------------------------------|
B|-------------------------------------------------------------------------|
G|---99-9-------------7-7---------------5-5--------------5-5---------------|
D|---99-9-99-99-9999--7-7-7-77-77-7777--5-5-5-55-55-5555-5-5-5-55-55-5555--|
A|---77-7-77-77-7777--5-5-5-55-55-5555--3-3-3-33-33-3333-3-3-3-33-33-3333--|
E|-------------------------------------------------------------------------|2x
PM      . .. .. ....      . .. .. ....      . .. .. ....     . .. .. ....
Guitar 2:
e|------7*-7-8---7--------7*-7-8---7---------7*-7-8---7--------7*-7-8-7*-7----|
B|----------------------------------------------------------------------------|
G|--7h9--------9---9--7h9--------9---9--7h9---------9---9--7h9-------------9--|
D|----------------------------------------------------------------------------|
A|----------------------------------------------------------------------------|
E|----------------------------------------------------------------------------|
(cont'd)
e|------7*-7-8---7--------7*-7-8---7---------7*-7-8---7--------7*-7-8-7*-7----|
B|----------------------------------------------------------------------------|
G|--7h9--------9---9--7h9--------9---9--7h9---------9---9--7h9-------------9--|
D|----------------------------------------------------------------------------|
A|----------------------------------------------------------------------------|
E|----------------------------------------------------------------------------|
(cont'd)
e|-------------------------------------------------------------------------|
B|-------------------------------------------------------------------------|
G|---99-9-99-99-9999--7-7-7-77-77-7777--5-5-5-55-55-5555-5-5-5-55-55-5555--|
D|---99-9-99-99-9999--7-7-7-77-77-7777--5-5-5-55-55-5555-5-5-5-55-55-5555--|
A|---77-7-77-77-7777--5-5-5-55-55-5555--3-3-3-33-33-3333-3-3-3-33-33-3333--|
E|-------------------------------------------------------------------------|2x
PM      . .. .. ....      . .. .. ....      . .. .. ....     . .. .. ....

Chorus:

Guitar 1:

e|----------------------------------------------------------------------|
B|----------------------------------------------------------------------|
G|---9-9-9-9-9-9-9-9--7-7-7-7-7-7-7-7--5-5-5-5-5-5-5-5-5-5-5-5-5-5-5-5--|
D|---9-9-9-9-9-9-9-9--7-7-7-7-7-7-7-7--5-5-5-5-5-5-5-5-5-5-5-5-5-5-5-5--|
A|---7-7-7-7-7-7-7-7--5-5-5-5-5-5-5-5--3-3-3-3-3-3-3-3-3-3-3-3-3-3-3-3--|
E|----------------------------------------------------------------------| 2x

e|----------------------------------------------------------|
B|----------------------------------------------------------|
G|---9-9-9-9--9~---7-7-7-7--7~---5-5-5-5--5~-5-5-5-5--5~----|
D|---9-9-9-9--9~---7-7-7-7--7~---5-5-5-5--5~-5-5-5-5--5~----|
A|---7-7-7-7--7~---5-5-5-5--5~---3-3-3-3--3~-3-3-3-3--3~----|
E|----------------------------------------------------------| 2x
PM   . . . .      . . . .        . . . .     . . . .   Guitar 2: *Use Wah pedal here
e|-------------------------------------------------------------------------|
B|-------------------------------------------------------------------------|
G|---9-9-9-9-9-9-9-9-1111111111111111--12121212121212121212121212121212----|
D|---x-x-x-x-x-x-x-x--x-x-x-x-x-x-x-x---x-x-x-x-x-x-x-x-x-x-x-x-x-x-x-x----|
A|---7-7-7-7-7-7-7-7--9-9-9-9-9-9-9-9--10101010101010101010101010101010----|
E|-------------------------------------------------------------------------|
(cont'd)
e|---------------------------------------------------15~~~~~~~~~~~~~~~-----|
B|-------------------------------------------------------------------------|
G|---9~~~~~~~~~~~~~~-11~~~~~~~~~~~~~~--12~~~~~~~~~~~-----------------------|
D|-------------------------------------------------------------------------|
A|-------------------------------------------------------------------------|
E|-------------------------------------------------------------------------|
(cont'd)
e|---------14~~~--------------14~~~~~~---------------15~~~~~~~~~~~~~~~-----|
B|-------------------------------------------------------------------------|
G|-------------------11~~~~~~----------12~~~~~~~~~~~-----------------------|
D|---14~~~-----------------------------------------------------------------|
A|-------------------------------------------------------------------------|
E|-------------------------------------------------------------------------|
(cont'd)
e|---12--12--14--14--15--15--15--17-15-14-15-----|
B|-----------------------------------------------|
G|-----------------------------------------------|
D|-----------------------------------------------|
A|-----------------------------------------------|
E|-----------------------------------------------|
(cont'd)
e|---15--12--14--14--15--15--15--17-15-14-15-17-15-14-15--|
B|--------------------------------------------------------|
G|--------------------------------------------------------|
D|--------------------------------------------------------|
A|--------------------------------------------------------|
E|--------------------------------------------------------|
(lahat ng note d2 sa gtr 2 ay sustained, let ring... ^_^)


Solo:
Guitar 1: (do twice)
e|-------------------------------------------|
B|-------------------------------------------|
G|---9~~--------7~~--------5~~---------------|
D|---9~~--------7~~--------5~~---------------|
A|---7~~--------5~~--------3~~---------------|
E|-------------------------------------------|

Bass Solo: (added just recently)
G|----9---9s11-9-11--12-11-12-/14-12-11--------------|
D|--9---9-------------------------------12s14-12-----|
A|---------------------------------------------------|
E|------------------------------------------------0--|
(cont'd)
G|----------9-11-12-14~--16-14-16-16s17-16-17-19-17-19/-24~-24-24-24-24\--|
D|--9-10-12---------------------------------------------------------------|
A|------------------------------------------------------------------------|
E|------------------------------------------------------------------------|
(cont'd)
G|-----14----12-------14---12-------14----12----11----12----14----12---11--|
D|------------------0----0-----0-------------------------------------------|
A|-------------------------------15----15----15----15----15----15----15----|
E|--12----12-----12--------------------------------------------------------|

(repeat this last riff with the lyrics... then)
(cont'd)
(may karugtong pa ung sa bass... di ko na magawa... ^_^)

Coda:
Both Guitars:
e|---------------------------------------|
B|---------------------------------------|
G|--99--------77-------55----------------|
D|--99--xxxx--77--xxxx-55-xxxxx----------|
A|--77--xxxx--55--xxxx-33-xxxxx----------|
E|---------------------------------------|
(cont'd)
e|---------------------------------------|
B|---------------------------------------|
G|--99--------77-------55----55----5555--|
D|--99--xxxx--77--xxxx-55-xx-55-xx-5555--|
A|--77--xxxx--55--xxxx-33-xx-33-xx-3333--|
E|---------------------------------------|

Chorus:

Guitar 1:
e|----------------------------------------------------------------------|
B|----------------------------------------------------------------------|
G|---9-9-9-9-9-9-9-9--7-7-7-7-7-7-7-7--5-5-5-5-5-5-5-5-5-5-5-5-5-5-5-5--|
D|---9-9-9-9-9-9-9-9--7-7-7-7-7-7-7-7--5-5-5-5-5-5-5-5-5-5-5-5-5-5-5-5--|
A|---7-7-7-7-7-7-7-7--5-5-5-5-5-5-5-5--3-3-3-3-3-3-3-3-3-3-3-3-3-3-3-3--|
E|----------------------------------------------------------------------| 4x

Guitar 2: *Use Wah pedal here
e|-------------------------------------------------------------------------|
B|-------------------------------------------------------------------------|
G|---9-9-9-9-9-9-9-9-1111111111111111--12121212121212121212121212121212----|
D|---x-x-x-x-x-x-x-x--x-x-x-x-x-x-x-x---x-x-x-x-x-x-x-x-x-x-x-x-x-x-x-x----|
A|---7-7-7-7-7-7-7-7--9-9-9-9-9-9-9-9--10101010101010101010101010101010----|
E|-------------------------------------------------------------------------|
(cont'd)
e|---------------------------------------------------15~~~~~~~~~~~~~~~-----|
B|-------------------------------------------------------------------------|
G|---9~~~~~~~~~~~~~~-11~~~~~~~~~~~~~~--12~~~~~~~~~~~-----------------------|
D|-------------------------------------------------------------------------|
A|-------------------------------------------------------------------------|
E|-------------------------------------------------------------------------|
(cont'd)
e|---------14~~~--------------14~~~~~~---------------15~~~~~~~~~~~~~~~-----|
B|-------------------------------------------------------------------------|
G|-------------------11~~~~~~----------12~~~~~~~~~~~-----------------------|
D|---14~~~-----------------------------------------------------------------|
A|-------------------------------------------------------------------------|
E|-------------------------------------------------------------------------|
(cont'd)
e|---12--12--14--14--15--15--15--17-15-14-15-----|
B|-----------------------------------------------|
G|-----------------------------------------------|
D|-----------------------------------------------|
A|-----------------------------------------------|
E|-----------------------------------------------|
(cont'd)
e|---15--12--14--14--15--15--15--17-15-14-15-17-15-14-15--|
B|--------------------------------------------------------|
G|--------------------------------------------------------|
D|--------------------------------------------------------|
A|--------------------------------------------------------|
E|--------------------------------------------------------|

End here...





Comments


Popular Callalily tabs & chords
A Starry Night Chords
Kung Kaya Ko Lang 1 Tabs
Pansamantala Tabs
Sanctuary 3 Tabs
Stars 8 Tabs
Susundan 2 Tabs
Dito Ka Lang Ukulele
Dreams Ukulele
Ooh La La Ukulele
You I Ukulele


Song lyrics



↑ Back to top | Tablatures and chords are parodies/interpretations of the original songs. You may use it for private study, scholarship, research or language learning purposes only
© 2014 AZChords.com Contact us | Privacy policy | DMCA | Add/correct tabs | Request tabs | Top 50 tabs