» » »

Callalily, Magbalik Tabs (ver.6)

Artists:  A B C D E F G H I J K L M N O P Q R S T U V W X Y Z # 

Magbalik Tabs (ver.6)

Callalily Tabs
 Rating:
4/5 (17 votes)
Magbalik lessons Tabs too difficult? Try these video lessons and learn fast
                

Hometown: Mabalacat, Pampanga
Cell#: 0917-735-8988


          Bago mo icopy paste ung tab, please pakibasa muna 2:


     Binabati ko po mga kada ko:

     Mabuhay ang Tyranny band!!! yeah!!!

     Carlos - drumz
     Boks - vocalz
     Charles - bass
     Dwine - Rhythm guitar
     Nikko - Keyboardz
     Albert - kahit ano!!! bwahahahaha!!!
     Jhosh - vocalz(din)
     Mike(ako) - Lead guitar


Bhala kyu kng gs2 nyung dagdagan, bsta ganyan narinig ko... (100%)

Standard tuning po!!! yeah!!



Intro:

guitar 1
      E                  B              C#                A 
|----7-----------|----7-----------|----7---------|--------------------|
|------7---7h9p7-|------7---7h9p7-|------7---7h9-|-9/10-9---9/10-9----|
|---9-----9------|---9-----9------|---9-----9----|---------9--------9-|
|----------------|----------------|--------------|--------------------|
|----------------|----------------|--------------|--------------------|
|----------------|----------------|--------------|--------------------|

      E                  B              C#               A 
|----7-----------|----7-----------|----7---------|--------------------|
|------7---7h9p7-|------7---7h9p7-|------7---7h9-|-9/10-9-10/12-------|
|---9-----9------|---9-----9------|---9-----9----|--------------------|
|----------------|----------------|--------------|--------------------|
|----------------|----------------|--------------|--------------------|
|----------------|----------------|--------------|--------------------|


guitar 2: pakinggan nyu strumming

|-------------------------|-------------------------|
|-------------------------|-------------------------|
|-1-1-1-1-1-1-1-1-1-1-1-1-|-4-4-4-4-4-4-4-4-4-4-4-4-|
|-2-2-2-2-2-2-2-2-2-2-2-2-|-4-4-4-4-4-4-4-4-4-4-4-4-|
|-2-2-2-2-2-2-2-2-2-2-2-2-|-2-2-2-2-2-2-2-2-2-2-2-2-|
|-------------------------|-------------------------|

|-------------------------|-------------------------|
|-------------------------|-------------------------|
|-6-6-6-6-6-6-6-6-6-6-6-6-|-------------------------|
|-6-6-6-6-6-6-6-6-6-6-6-6-|-7-7-7-7-7-7-7-7-7-7-7-7-|
|-4-4-4-4-4-4-4-4-4-4-4-4-|-7-7-7-7-7-7-7-7-7-7-7-7-|
|-------------------------|-5-5-5-5-5-5-5-5-5-5-5-5-|



Verse 1:

guitar 2: pakinggan nyu strumming
            E                         B
|-0-0-0-0-0-0-0-0-0-0-0-0-|-0-0-0-0-0-0-0-0-0-0-0-0-|
|-0-0-0-0-0-0-0-0-0-0-0-0-|-0-0-0-0-0-0-0-0-0-0-0-0-|
|-1-1-1-1-1-1-1-1-1-1-1-1-|-4-4-4-4-4-4-4-4-4-4-4-4-|
|-2-2-2-2-2-2-2-2-2-2-2-2-|-4-4-4-4-4-4-4-4-4-4-4-4-|
|-2-2-2-2-2-2-2-2-2-2-2-2-|-2-2-2-2-2-2-2-2-2-2-2-2-|
|-0-0-0-0-0-0-0-0-0-0-0-0-|-------------------------|
           C#                         A
|-0-0-0-0-0-0-0-0-0-0-0-0-|-0-0-0-0-0-0-0-0-0-0-0-0-|
|-0-0-0-0-0-0-0-0-0-0-0-0-|-0-0-0-0-0-0-0-0-0-0-0-0-|
|-6-6-6-6-6-6-6-6-6-6-6-6-|-2-2-2-2-2-2-2-2-2-2-2-2-|
|-6-6-6-6-6-6-6-6-6-6-6-6-|-2-2-2-2-2-2-2-2-2-2-2-2-|
|-4-4-4-4-4-4-4-4-4-4-4-4-|-0-0-0-0-0-0-0-0-0-0-0-0-|
|-------------------------|-------------------------|



Pre Chorus:

guitar 1 & 2:

       B             F#
|-------------|-------------|
|-------------|-------------|  3x
|------4------|-------------|
|------4------|------4------|
|------2------|------4------|
|-------------|------2------|

        F#                A                   B
|-----------------|-----------------|----------------------|
|-----------------|-----------------|----------------------|
|-----------------|-----------------|----------------------|
|-4-4-4-4-4-4-4-4-|-7-7-7-7-7-7-7-7-|-9-9-9-9-9-9----------|
|-4-4-4-4-4-4-4-4-|-7-7-7-7-7-7-7-7-|-9-9-9-9-9-9----7h9p7-|
|-2-2-2-2-2-2-2-2-|-5-5-5-5-5-5-5-5-|-7-7-7-7-7-7-7h9------|



Chorus 1: una ung acoustic

guitar 2

            E                         B
|-0-0-0-0-0-0-0-0-0-0-0-0-|-0-0-0-0-0-0-0-0-0-0-0-0-|
|-0-0-0-0-0-0-0-0-0-0-0-0-|-0-0-0-0-0-0-0-0-0-0-0-0-|
|-1-1-1-1-1-1-1-1-1-1-1-1-|-4-4-4-4-4-4-4-4-4-4-4-4-|
|-2-2-2-2-2-2-2-2-2-2-2-2-|-4-4-4-4-4-4-4-4-4-4-4-4-|
|-2-2-2-2-2-2-2-2-2-2-2-2-|-2-2-2-2-2-2-2-2-2-2-2-2-|
|-0-0-0-0-0-0-0-0-0-0-0-0-|-------------------------|
           C#                         A
|-0-0-0-0-0-0-0-0-0-0-0-0-|-0-0-0-0-0-0-0-0-0-0-0-0-|
|-0-0-0-0-0-0-0-0-0-0-0-0-|-0-0-0-0-0-0-0-0-0-0-0-0-|
|-6-6-6-6-6-6-6-6-6-6-6-6-|-2-2-2-2-2-2-2-2-2-2-2-2-|
|-6-6-6-6-6-6-6-6-6-6-6-6-|-2-2-2-2-2-2-2-2-2-2-2-2-|
|-4-4-4-4-4-4-4-4-4-4-4-4-|-0-0-0-0-0-0-0-0-0-0-0-0-|
|-------------------------|-------------------------|

guitar 1: papasok na distorted

|-------------------------|-------------------------|
|-------------------------|-------------------------|
|-1-1-1-1-1-1-1-1-1-1-1-1-|-4-4-4-4-4-4-4-4-4-4-4-4-|
|-2-2-2-2-2-2-2-2-2-2-2-2-|-4-4-4-4-4-4-4-4-4-4-4-4-|
|-2-2-2-2-2-2-2-2-2-2-2-2-|-2-2-2-2-2-2-2-2-2-2-2-2-|
|-------------------------|-------------------------|

|-------------------------|-------------------------|
|-------------------------|-------------------------|
|-6-6-6-6-6-6-6-6-6-6-6-6-|-------------------------|
|-6-6-6-6-6-6-6-6-6-6-6-6-|-7-7-7-7-7-7-7-7-7-7-7-7-|
|-4-4-4-4-4-4-4-4-4-4-4-4-|-7-7-7-7-7-7-7-7-7-7-7-7-|
|-------------------------|-5-5-5-5-5-5-5-5-5-5-5-5-|



Intro: ung 1st line lang

guitar 1
      E                  B              C#                A 
|----7-----------|----7-----------|----7---------|--------------------|
|------7---7h9p7-|------7---7h9p7-|------7---7h9-|-9/10-9---9/10-9----|
|---9-----9------|---9-----9------|---9-----9----|---------9--------9-|
|----------------|----------------|--------------|--------------------|
|----------------|----------------|--------------|--------------------|
|----------------|----------------|--------------|--------------------|

guitar 2: pakinggan nyu strumming

|-------------------------|-------------------------|
|-------------------------|-------------------------|
|-1-1-1-1-1-1-1-1-1-1-1-1-|-4-4-4-4-4-4-4-4-4-4-4-4-|
|-2-2-2-2-2-2-2-2-2-2-2-2-|-4-4-4-4-4-4-4-4-4-4-4-4-|
|-2-2-2-2-2-2-2-2-2-2-2-2-|-2-2-2-2-2-2-2-2-2-2-2-2-|
|-------------------------|-------------------------|

|-------------------------|-------------------------|
|-------------------------|-------------------------|
|-6-6-6-6-6-6-6-6-6-6-6-6-|-------------------------|
|-6-6-6-6-6-6-6-6-6-6-6-6-|-7-7-7-7-7-7-7-7-7-7-7-7-|
|-4-4-4-4-4-4-4-4-4-4-4-4-|-7-7-7-7-7-7-7-7-7-7-7-7-|
|-------------------------|-5-5-5-5-5-5-5-5-5-5-5-5-|



Verse 2:

guitar 2: pakinggan nyu strumming
            E                         B
|-0-0-0-0-0-0-0-0-0-0-0-0-|-0-0-0-0-0-0-0-0-0-0-0-0-|
|-0-0-0-0-0-0-0-0-0-0-0-0-|-0-0-0-0-0-0-0-0-0-0-0-0-|
|-1-1-1-1-1-1-1-1-1-1-1-1-|-4-4-4-4-4-4-4-4-4-4-4-4-|
|-2-2-2-2-2-2-2-2-2-2-2-2-|-4-4-4-4-4-4-4-4-4-4-4-4-|
|-2-2-2-2-2-2-2-2-2-2-2-2-|-2-2-2-2-2-2-2-2-2-2-2-2-|
|-0-0-0-0-0-0-0-0-0-0-0-0-|-------------------------|
           C#                         A                    dalawang ikot
|-0-0-0-0-0-0-0-0-0-0-0-0-|-0-0-0-0-0-0-0-0-0-0-0-0-|     
|-0-0-0-0-0-0-0-0-0-0-0-0-|-0-0-0-0-0-0-0-0-0-0-0-0-|    tpos papsok guitar 1        
|-6-6-6-6-6-6-6-6-6-6-6-6-|-2-2-2-2-2-2-2-2-2-2-2-2-|     (light strum)
|-6-6-6-6-6-6-6-6-6-6-6-6-|-2-2-2-2-2-2-2-2-2-2-2-2-|
|-4-4-4-4-4-4-4-4-4-4-4-4-|-0-0-0-0-0-0-0-0-0-0-0-0-|
|-------------------------|-------------------------|


Guitar 1: light strum (distorted)
     E         B         C#        A
|---------|---------|---------|---------|
|---------|---------|---------|---------|
|----1----|----4----|----6----|----2----|
|----2----|----4----|----6----|----2----|
|----2----|----2----|----4----|----0----|
|---------|---------|---------|---------|



Pre Chorus 2: (alang lead sa dulo ang 2nd pre chorus)

Guitar 1 & 2:
       B             F#
|-------------|-------------|
|-------------|-------------|  3x
|------4------|-------------|
|------4------|------4------|
|------2------|------4------|
|-------------|------2------|

         F#                A                 B
|-----------------|-----------------|-----------------|
|-----------------|-----------------|-----------------|
|-----------------|-----------------|-----------------|
|-4-4-4-4-4-4-4-4-|-7-7-7-7-7-7-7-7-|-9-9-9-9-9-9-9-9-|
|-4-4-4-4-4-4-4-4-|-7-7-7-7-7-7-7-7-|-9-9-9-9-9-9-9-9-|
|-2-2-2-2-2-2-2-2-|-5-5-5-5-5-5-5-5-|-7-7-7-7-7-7-7-7-|



Chorus:

guitar 1 & 2: (distorted na nari2nig ko dyan eh)

|-------------------------|-------------------------|
|-------------------------|-------------------------|
|-1-1-1-1-1-1-1-1-1-1-1-1-|-4-----------------------|
|-2-2-2-2-2-2-2-2-2-2-2-2-|-4-----------------------|
|-2-2-2-2-2-2-2-2-2-2-2-2-|-2-----------------------|
|-------------------------|-------------------------|

|-------------------------|-------------------------|
|-------------------------|-------------------------|
|-6-6-6-6-6-6-6-6-6-6-6-6-|-------------------------|
|-6-6-6-6-6-6-6-6-6-6-6-6-|-7-7-7-7-7-7-7-7-7-7-7-7-|
|-4-4-4-4-4-4-4-4-4-4-4-4-|-7-7-7-7-7-7-7-7-7-7-7-7-|
|-------------------------|-5-5-5-5-5-5-5-5-5-5-5-5-|



Adlib:  iniba ko sa 7th measure(unique ako eh) Bleh!!!

guitar 1(lead) & 2(chords): ayan, para tama timming nyu

             E                         B                    C#
|---------------------------|----------------------|----------------------|
|---------------------------|-12-12-10-10-9-9-7-7--|---12-/17-17----------|
|--------------6h8h9--11h13-|----------------------|----------------------|
|--------7h9h11-------------|----------------------|----------------------|
|--7h9h11-------------------|----------------------|----------------------|
|---------------------------|----------------------|----------------------|
            A                       E
|----------16-14-------|-----------------------------------------|
|--1717-19-------17-16-|-16-17-16----17-16----17-16----17-16-----|
|----------------------|-----------16-------16-------16-------16-|
|----------------------|-----------------------------------------|
|----------------------|-----------------------------------------|
|----------------------|-----------------------------------------|
                  B                                   C#
|--17-16----17-16----17-16----17-16-|--------------------------------|
|--------17-------17-------17-------|-17-17-16--12h14p12----12b14b12-|
|-----------------------------------|--------------------13----------|
|-----------------------------------|--------------------------------|
|-----------------------------------|--------------------------------|
|-----------------------------------|--------------------------------|
                        A
|-------------------------------------------------|
|-------------------------------------------------|
|--9h11-13-13-11-11-9-9---------------------------|
|-----------------------9-9-7-7-------------------|
|-------------------------------11-11-9/11-9-11-7-|
|-------------------------------------------------|



Chorus:

guitar 2: solo muna nung acoustic habang nkahold ung guitar 1(distorted)
            E                         B
|-0-0-0-0-0-0-0-0-0-0-0-0-|-0-0-0-0-0-0-0-0-0-0-0-0-|
|-0-0-0-0-0-0-0-0-0-0-0-0-|-0-0-0-0-0-0-0-0-0-0-0-0-|
|-1-1-1-1-1-1-1-1-1-1-1-1-|-4-4-4-4-4-4-4-4-4-4-4-4-|
|-2-2-2-2-2-2-2-2-2-2-2-2-|-4-4-4-4-4-4-4-4-4-4-4-4-|
|-2-2-2-2-2-2-2-2-2-2-2-2-|-2-2-2-2-2-2-2-2-2-2-2-2-|
|-0-0-0-0-0-0-0-0-0-0-0-0-|-------------------------|
           C#                         A 
|-0-0-0-0-0-0-0-0-0-0-0-0-|-0-0-0-0-0-0-0-0-0-0-0-0-|     
|-0-0-0-0-0-0-0-0-0-0-0-0-|-0-0-0-0-0-0-0-0-0-0-0-0-|       
|-6-6-6-6-6-6-6-6-6-6-6-6-|-2-2-2-2-2-2-2-2-2-2-2-2-|
|-6-6-6-6-6-6-6-6-6-6-6-6-|-2-2-2-2-2-2-2-2-2-2-2-2-|
|-4-4-4-4-4-4-4-4-4-4-4-4-|-0-0-0-0-0-0-0-0-0-0-0-0-|
|-------------------------|-------------------------|

guitar 1: papasok distorted

|-------------------------|-------------------------|
|-------------------------|-------------------------|
|-1-1-1-1-1-1-1-1-1-1-1-1-|-4-4-4-4-4-4-4-4-4-4-4-4-|
|-2-2-2-2-2-2-2-2-2-2-2-2-|-4-4-4-4-4-4-4-4-4-4-4-4-|
|-2-2-2-2-2-2-2-2-2-2-2-2-|-2-2-2-2-2-2-2-2-2-2-2-2-|
|-------------------------|-------------------------|

|-------------------------|-------------------------|
|-------------------------|-------------------------|
|-6-6-6-6-6-6-6-6-6-6-6-6-|-------------------------|
|-6-6-6-6-6-6-6-6-6-6-6-6-|-7-7-7-7-7-7-7-7-7-7-7-7-|
|-4-4-4-4-4-4-4-4-4-4-4-4-|-7-7-7-7-7-7-7-7-7-7-7-7-|
|-------------------------|-5-5-5-5-5-5-5-5-5-5-5-5-|



Outro: gawin nyu ung ginawa nyu sa intro

guitar 1

      E                  B              C#                A 
|----7-----------|----7-----------|----7---------|--------------------|
|------7---7h9p7-|------7---7h9p7-|------7---7h9-|-9/10-9---9/10-9----|
|---9-----9------|---9-----9------|---9-----9----|---------9--------9-|
|----------------|----------------|--------------|--------------------|
|----------------|----------------|--------------|--------------------|
|----------------|----------------|--------------|--------------------|

      E                  B              C#               A 
|----7-----------|----7-----------|----7---------|--------------------|
|------7---7h9p7-|------7---7h9p7-|------7---7h9-|-9/10-9-10/12-------|
|---9-----9------|---9-----9------|---9-----9----|--------------------|
|----------------|----------------|--------------|--------------------|
|----------------|----------------|--------------|--------------------|
|----------------|----------------|--------------|--------------------|

guitar 2: 

|-------------------------|-------------------------|
|-------------------------|-------------------------|
|-1-1-1-1-1-1-1-1-1-1-1-1-|-4-4-4-4-4-4-4-4-4-4-4-4-|
|-2-2-2-2-2-2-2-2-2-2-2-2-|-4-4-4-4-4-4-4-4-4-4-4-4-|
|-2-2-2-2-2-2-2-2-2-2-2-2-|-2-2-2-2-2-2-2-2-2-2-2-2-|
|-------------------------|-------------------------|

|-------------------------|-------------------------|
|-------------------------|-------------------------|
|-6-6-6-6-6-6-6-6-6-6-6-6-|-------------------------|
|-6-6-6-6-6-6-6-6-6-6-6-6-|-7-7-7-7-7-7-7-7-7-7-7-7-|
|-4-4-4-4-4-4-4-4-4-4-4-4-|-7-7-7-7-7-7-7-7-7-7-7-7-|
|-------------------------|-5-5-5-5-5-5-5-5-5-5-5-5-|



Legend:

     / - slide
     b - bend
     h - hammer on
     p - pull off
     

    Paad po friendster:


  For questions or suggestions, msg me... tnx pow
            
Submit corrections

comments powered by Disqus
↑ Back to top | Callalily Tabs for Magbalik. Lyrics for acoustic guitar and electric guitar. Tablatures and chords are parodies/interpretations of the original songs. You may use it for private study, scholarship, research or language learning purposes only