» » »

Callalily, Magbalik Tabs (ver.3)

Artists:  A B C D E F G H I J K L M N O P Q R S T U V W X Y Z # 

Magbalik Tabs (ver.3)

Callalily Tabs
 Rating:
3.7/5 (6 votes)
Magbalik lessons Tabs too difficult? Try these video lessons and learn fast
                DURATION:  05:26
TRACK NO.: 04
Place    : Pateros Metro Manila
Age      : 19
why?     : Kunwari magaling ako! Pampam!

###############################################
##          Magbalik - callalily             ##
###############################################

=================================================
=@@@@@@@@@@@@@@@@@@@@@@@@@@@@@@@@@@@@@@@@@@@@@@@=
=@                                             @=
=@  ## ## ####  ####   ###  ###### #### ####   @=
=@  ## ## ## ## ## ## ## ##   ##   ##   ## ##  @=
=@  ## ## ## ## ## ## ## ##   ##   #### ## ##  @=
=@  ## ## ####  ## ## #####   ##   ##   ## ##  @=
=@  ## ## ##    ## ## ## ##   ##   ##   ## ##  @=
=@   ###  ##    ####  ## ##   ##   #### ####   @=
=@                                             @-
=@          March 13, 2007 - 03:31 PM          @-
=@                                             @=
=@@@@@@@@@@@@@@@@@@@@@@@@@@@@@@@@@@@@@@@@@@@@@@@=
=================================================

Ganda ng song na to!!! Promise!!! Pinaka favorite ko sa lahat ng kanta nila!!!
yung drummer nila ang may gawa nito!!! Promise!!! The best!!! Sana magustuhan nyo to...
Di ako sure sa bass ng intro na kasabay ng lead... medyo nasisiraan na ko ng ulo sa pagkapa
ng lead at bass.. hirap kumapa lalo na kung electric ang kinakapa, acoustic ang pangkapa..

Para to sa lahat ng mga Callalily Fans sa buong pilipinas!!! Pinoy Band RockS!!!

may bass dito at lead.. para masaya!!! may adlib pa!!! Please paki rate.. Salamat..
Add nyo rin me sa friendster para dumami naman friends ko.. wawa kasi ako.. nyahehehe!!!

Medyo detalyado po ang tab na to.. hindi man ito isandaang porsiyentong detalyado, ok parin!
--mga 90% lang.. hehe..
ENJOY!!!!!!!

*Kahit na alam kong BEGINNER palang ako sa mundo ng gitara, THIS TAB iS NOT A BAD TAB!
PLEASE RATE... THANKS!!!! ^_^x

Chords used:

    E     B5   C#5    A2   f#m
E|--0--|--0--|--0--|--0--|--0--|
B|--0--|--0--|--0--|--0--|--0--|
G|--1--|--4--|--6--|--2--|--2--|
D|--2--|--4--|--6--|--2--|--4--|
A|--2--|--2--|--4--|--0--|--4--|
E|--x--|--x--|--x--|--x--|--x--|


############################
##         INTRO          ##
############################

BASS
E|----------|----------|----------|----------|
B|----------|----------|----------|----------|
G|----------|----------|----------|----------|
D|-----4s6--|----------|-----4s6--|----------|
A|---2------|---0-2s4--|---2------|---0-2s4--|
E|-0--------|-0--------|-0--------|-0--------|

AFTER NITO, PASOK NA ANG RYTHM TSAKA LEAD AND BASS..


*Pwedeng may ibang variations ng tab ng intro.. pero mas pinili ko to
kaso mas maayos ang lagay ng daliri dito.. sakto pa sa E CHORD na syang
unang chord ng kanta..

RYTHM: ELECTRIC
    E     B    C#m    A2
E|--x--|--x--|--x--|-----|
B|--x--|--x--|--x--|--2--|
G|--1--|--4--|--6--|--2--|
D|--2--|--4--|--6--|--0--|
A|--2--|--2--|--4--|--x--|
E|--x--|--x--|--x--|--x--|

LEAD:
   E               B               C#m         A2
E|---7---------------7---------------7------------------------------|
B|-----7---7h9-7v------7---7h9-7v------7---7-9-9s10-9---9s10-9------|
G|-9-----9---------9-----9---------9-----9------------9--------9----|
D|------------------------------------------------------------------|
A|------------------------------------------------------------------|
E|------------------------------------------------------------------|

   E               B               C#m         A2
E|---7---------------7---------------7------------------------------|
B|-----7---7h9p7r------7---7h9p7r------7---7-9-9s10-9---9s12v-------|
G|-9-----9---------9-----9---------9-----9--------------------------|
D|------------------------------------------------------------------|
A|------------------------------------------------------------------|
E|------------------------------------------------------------------|

BASS:
G|--------------------------------------------------------|-----------------------|
D|--------------------------------------------------------|-----------------------|
A|-------------------2-2-2-2-2-2-2-2-2--2h4-4-4-4-4-4-4-4-|---0h2-0---0h2-0-2p0---|
E|--0-0-0-0-0-0-0-0---------------------------------------|--0-------0----------0-|
							   *imbento ko nalang to mga dudes..
                                                            di ko na kasi marinig..
                                                            pero promise, okay naman eh.. hehe
BASS:
    E                B                  C#m                  A2
G|--------------------------------------------------------|----------|
D|--------------------------------------------------------|--------2-|
A|-------------------2-2-2-2-2-2-2-2-2--2h4-4-4-4-4-4-4-4-|--0-2-0---|
E|--0-0-0-0-0-0-0-0---------------------------------------|----------|
							   *imbento ko nalang to mga dudes..
                                                            di ko na kasi marinig..
                                                            pero promise, okay naman eh.. hehe


############################
##        VERSE I         ##
############################

E          B
Wala na'ng dating pagtingin
C#m       A2
sawa na ba saking lambing
E            B
wala ka namang dahilan
C#m            A2
bakit bigla nalang nangiwan

RYTHM ACOUSTIC:
    E     B5   C#5    A2  
E|--0--|--0--|--0--|--0--|
B|--0--|--0--|--0--|--0--|
G|--1--|--4--|--6--|--2--|
D|--2--|--4--|--6--|--2--|
A|--2--|--2--|--4--|--0--|
E|--x--|--x--|--x--|--x--|


LEAD FILL-IN:
E|-----|    E|---0-|
B|-----|    B|-0---|
G|---9-| or G|-----| *after to ng word na "nangiwan"
D|-9---|    D|-----|
A|-----|    A|-----|
E|-----|    E|-----|

BASS:
    E     B    C#m       A2
G|-----|-----|---------|-------| *sabay to ng verse.. 2x yan gagawin.. 
D|-----|-----|---------|-------| 
A|-----|-2==-|-2-2h4==-|-4-0==-|
E|-0==-|-----|---------|-------|


############################
##        VERSE II        ##
############################


E          B5
di na alam ang gagawin
c#m       A2
upang ika'y magbalik sakin
E             B5
ginawa ko naman ang lahat
c#m             A2
bakit bigla nalang naghanap


RYTHM ACOUSTIC:
    E     B5   C#5    A2  
E|--0--|--0--|--0--|--0--|
B|--0--|--0--|--0--|--0--|
G|--1--|--4--|--6--|--2--|
D|--2--|--4--|--6--|--2--|
A|--2--|--2--|--4--|--0--|
E|--x--|--x--|--x--|--x--|

BASS:
    E     B    C#m       A2
G|-----|-----|---------|-------| *sabay to ng verse.. 2x yan gagawin.. 
D|-----|-----|---------|-------| 
A|-----|-2==-|-2-2h4==-|-4-0==-|
E|-0==-|-----|---------|-------|

*Then after ng huling bass, bago pumasok ang refrain
do this:

BASS:
G|-------|
D|-------|
A|-------|
E|-5s1p0-|

############################
##        REFRAIN         ##
############################  


F#m          B5
hindi magbabago
F#m     B5
pagmamahal sa iyo
f#m        B5
sanay pakinggan mo
    A2       B5
ang awit ng pusong ito

RYTHM ELECTRIC:
   f#m   B5    A2
E|--x--|--x--|--x--|
B|--x--|--x--|--x--|
G|--2--|--4--|--2--|
D|--4--|--4--|--2--|
A|--4--|--2--|--0--|
E|--x--|--x--|--x--|

BASS:
  F#m                 B           F#m           B 
G|-------------------|-----------|-------------|-------------------|
D|-------------------|-----------|-------------|-------------------|
A|-------------------|-2-2---0h2-|-------------|-----2s4-2-0---0---|
E|-2----2--2-2---2p0-|-----------|-2----2--2-2-|-0-2---------2---0-|

BASS:
  F#m            B                   A2                B
G|--------------|-------------------|-----------------|-------|
D|--------------|-------------------|-----------------|-------|
A|--------------|-2----2--2-2---2p0-|-0-0-0-0-0-0-0-0-|-2x16--|
E|-2--2-2---2p0-|-------------------|-----------------|-------|


*Pagdating ng A2 chord hanggang B (ang awit ng pusong ito... )
 pasok ang rythm na panay downward strum..

RYTHM ELECTRIC:
  A2                B                 B
E|-x-x-x-x-x-x-x-x-|-x-x-x-x-x-x-x-x-|-x-x-x-x-x-x-|
B|-x-x-x-x-x-x-x-x-|-x-x-x-x-x-x-x-x-|-x-x-x-x-x-x-|
G|-2-2-2-2-2-2-2-2-|-4-4-4-4-4-4-4-4-|-4-4-4-4-4-4-|
D|-2-2-2-2-2-2-2-2-|-4-4-4-4-4-4-4-4-|-4-4-4-4-4-4-|
A|-0-0-0-0-0-0-0-0-|-2-2-2-2-2-2-2-2-|-2-2-2-2-2-2-|
E|-x-x-x-x-x-x-x-x-|-x-x-x-x-x-x-x-x-|-x-x-x-x-x-x-|
                                    
                   pagdating dito,-->|----------------------|
                   sasabay ang lead..|----------------------|
                                     |----------------------|
                                     |---------------2h4p2--|
                                     |-2-2-2-2-2-2h4--------|
                                     |----------------------|

############################                                             
##        CHORUS          ##
############################

--------------------
RYTHM GUITAR SOLO:
--------------------

RYTHM ACOUSTIC:
    E     B5   C#5    A2  
E|--0--|--0--|--0--|--0--|
B|--0--|--0--|--0--|--0--|
G|--1--|--4--|--6--|--2--|
D|--2--|--4--|--6--|--2--|
A|--2--|--2--|--4--|--0--|
E|--x--|--x--|--x--|--x--|

E                     B5       C#m
tulad ng mundong hindi tumitigil sa pagikot
     A2
pag-ibig di mapapagod


BASS:


Bago pumasok ang drums, rythm ito muna..

G|---------|  
D|---------|
A|---------|
E|--2s1p0--|


Then:

RYTHM ELECTRIC:
    E     B    C#m    A2
E|--x--|--x--|--x--|-----|
B|--x--|--x--|--x--|--2--|
G|--1--|--4--|--6--|--2--|
D|--2--|--4--|--6--|--0--|
A|--2--|--2--|--4--|--x--|
E|--x--|--x--|--x--|--x--|

E                     B       C#m
tulad ng ilog na hindi tumitigil sa pagagos
     A2
pag-ibig di matatapos


BASS
  E		  B	          F#m             A2
G|---------------|---------------|---------------|---------------|
D|---------------|---------------|---------------|---------------|
A|---------------|-2-2-2-2-2-2-2-|-4-4-4-4-4-4-4-|-0-0-0-0-0-0-0-|
E|-0-0-0-0-0-0-0-|---------------|---------------|---------------|



TAPOS PASOK ANG INTRO LEAD:

LEAD:
   E               B               C#m         A2
E|---7---------------7---------------7------------------------------|
B|-----7---7h9-7v------7---7h9-7v------7---7-9-9s10-9---9s10-9------|
G|-9-----9---------9-----9---------9-----9------------9--------9----|
D|------------------------------------------------------------------|
A|------------------------------------------------------------------|
E|------------------------------------------------------------------|

BASS:
    E                B                  C#m                  A2
G|--------------------------------------------------------|-----------------------|
D|--------------------------------------------------------|-----------------------|
A|-------------------2-2-2-2-2-2-2-2-2--2h4-4-4-4-4-4-4-4-|---0h2-0---0h2-0-2p0---|
E|--0-0-0-0-0-0-0-0---------------------------------------|--0-------0----------0-|

############################
##       VERSE III        ##
############################

E     B         C#m
alalala'y bumabalik
         A2
mga panahong nasasabik
E            B
sukdulang mukha mo ay
C#m          A2
laging nasa panaginip

RYTHM ACOUSTIC:
    E     B5   C#5    A2  
E|--0--|--0--|--0--|--0--|
B|--0--|--0--|--0--|--0--|
G|--1--|--4--|--6--|--2--|
D|--2--|--4--|--6--|--2--|
A|--2--|--2--|--4--|--0--|
E|--x--|--x--|--x--|--x--|

LEAD FILL-IN:
E|-----|    E|---0-|
B|-----|    B|-0---|
G|---9-| or G|-----| *after to ng word na "nangiwan"
D|-9---|    D|-----|
A|-----|    A|-----|
E|-----|    E|-----|


BASS:
    E     B    C#m       A2
G|-----|-----|---------|-------| *sabay to ng verse.. 2x yan gagawin.. 
D|-----|-----|---------|-------| 
A|-----|-2==-|-2-2h4==-|-4-0==-|
E|-0==-|-----|---------|-------|

############################
##        VERSE IV        ##
############################

E         B           C#m
bakit biglang pinagpalit
          A2
pagsasamaha'y tila nawaglit
E             B
ang dating walang hanggan
C#m           A2
nagkaroon ng katapusan

BASS
    E     B    C#m       A2
G|-----|-----|---------|-------| *sabay to ng verse.. 2x yan gagawin.. 
D|-----|-----|---------|-------| 
A|-----|-2==-|-2-2h4==-|-4-0==-|
E|-0==-|-----|---------|-------|


*Then after ng huling bass, bago pumasok ang refrain
do this:

BASS:
G|-------|
D|-------|
A|-------|
E|-5s1p0-|

############################
##        REFRAIN         ##
############################

f#m          B
hindi magbabago
f#m     B
pagmamahal sa iyo
f#m        B
sanay pakinggan mo
    A2       B
ang awit ng pusong ito

RYTHM ELECTRIC:
   f#m   B5    A2
E|--x--|--x--|--x--|
B|--x--|--x--|--x--|
G|--2--|--4--|--2--|
D|--4--|--4--|--2--|
A|--4--|--2--|--0--|
E|--x--|--x--|--x--|

BASS:
  F#m                 B           F#m           B 
G|-------------------|-----------|-------------|-------------------|
D|-------------------|-----------|-------------|-------------------|
A|-------------------|-2-2---0h2-|-------------|-----2s4-2-0---0---|
E|-2----2--2-2---2p0-|-----------|-2----2--2-2-|-0-2---------2---0-|

BASS:
  F#m            B                   A2                B
G|--------------|-------------------|-----------------|------|
D|--------------|-------------------|-----------------|------|
A|--------------|-2----2--2-2---2p0-|-0-0-0-0-0-0-0-0-|-2x16-|
E|-2--2-2---2p0-|-------------------|-----------------|------|

*Pagdating ng A2 chord hanggang B (ang awit ng pusong ito... )
 pasok ang rythm na panay downward strum..

RYTHM ELECTRIC:
  A2                B                 B
E|-x-x-x-x-x-x-x-x-|-x-x-x-x-x-x-x-x-|-x-x-x-x-x-x-x-x-|
B|-x-x-x-x-x-x-x-x-|-x-x-x-x-x-x-x-x-|-x-x-x-x-x-x-x-x-|
G|-2-2-2-2-2-2-2-2-|-4-4-4-4-4-4-4-4-|-4-4-4-4-4-4-4-4-|
D|-2-2-2-2-2-2-2-2-|-4-4-4-4-4-4-4-4-|-4-4-4-4-4-4-4-4-|
A|-0-0-0-0-0-0-0-0-|-2-2-2-2-2-2-2-2-|-2-2-2-2-2-2-2-2-|
E|-x-x-x-x-x-x-x-x-|-x-x-x-x-x-x-x-x-|-x-x-x-x-x-x-x-x-|
                                    
                   pagdating dito,-->|-----------------|
                   sasabay ang lead..|-----------------|
                                     |-----------------|
                                     |-----------------|
                                     |-2-2-2-2-2-2-2-2-|
                                     |-----------------|


############################
##        CHORUS          ##
############################

Rythm Electric:   
E|-x-x-x-x-x-x-x-x-x--x------------x-x-x-x-x-x-x-x------x-x-x-x-x-x-x-x--|
B|-x-x-x-x-x-x-x-x-x--x------------x-x-x-x-x-x-x-x------x-x-x-x-x-x-x-x--|
G|-1-1-1-1-1-1-1-1-1--4x-----------6-6-6-6-6-6-6-6------2-2-2-2-2-2-2-2--|
D|-2-2-2-2-2-2-2-2-2--4x-----------6-6-6-6-6-6-6-6------2-2-2-2-2-2-2-2--|
A|-2-2-2-2-2-2-2-2-2--2x-----------4-4-4-4-4-4-4-4------0-0-0-0-0-0-0-0--|
E|-x-x-x-x-x-x-x-x-x--x------------x-x-x-x-x-x-x-x------x-x-x-x-x-x-x-x--|
  
   tulad ng mundong hindi tumitigil sa pagikot       pagibig di mapapagod

Bass:
G|-----------------------------------------------------------------------|
D|-----------------------------------------------------------------------|
A|-----------------------------------------------------------------------|
E|-0-0-0-0-0-0-0-0-0--7x-----------9-9-9-9-9-9-9-9------0-0-0-0-0-0-0-0--|


Rythm Electric:   
E|-x-x-x-x-x-x-x-x-x--x------------x-x-x-x-x-x-x-x------x-x-x-x-x-x-x-x--|
B|-x-x-x-x-x-x-x-x-x--x------------x-x-x-x-x-x-x-x------x-x-x-x-x-x-x-x--|
G|-1-1-1-1-1-1-1-1-1--4x-----------6-6-6-6-6-6-6-6------2-2-2-2-2-2-2-2--|
D|-2-2-2-2-2-2-2-2-2--4x-----------6-6-6-6-6-6-6-6------2-2-2-2-2-2-2-2--|
A|-2-2-2-2-2-2-2-2-2--2x-----------4-4-4-4-4-4-4-4------0-0-0-0-0-0-0-0--|
E|-x-x-x-x-x-x-x-x-x--x------------x-x-x-x-x-x-x-x------x-x-x-x-x-x-x-x--|
  
   tulad ng ilog na hindi tumitigil sa pagagos      pagibig di matatapos

Bass:
G|-----------------------------------------------------------------------|
D|-----------------------------------------------------------------------|
A|-----------------------------------------------------------------------|
E|-0-0-0-0-0-0-0-0-0--7x-------9s1-9-9-9-9-9-9-9-9------0-0-0-0-0-0-0-0--|


############################
##         ADLIB          ##
############################

Chords dito sa adlib

Rythm Electric
   C#5    B     A2
E|--x--|--x--|--x--|
B|--x--|--x--|--x--|
G|--6--|--4--|--2--| *di ako sure dito ha..
D|--6--|--4--|--2--|
A|--4--|--2--|--0--|
E|--x--|--x--|--x--|



*Medyo di ako sure dun sa isang part dito.. lagyan ko ng note kung alin dun..
but the rest of the ABLIB TAB is accurate..


Bass:
G|--------------------------------------------------|-----------------------|
D|--------------------------------------------------|-----------------------|
A|--------------------------------------------------|-----------------------|
E|--9-9-9-9-9-9-9-9-7-7-7-7-7-7-7-7-5-5-5-5-5-5-5-5-|-5-5--7-7--9-9-9s11-7--|

Bass:
G|--------------------------------------------------|-------------------|
D|--------------------------------------------------|-------------------|
A|--------------------------------------------------|-------------------|
E|--9-9-9-9-9-9-9-9-7-7-7-7-7-7-7-7-5-5-5-5-5-5-5-5-|-5-5-5-5-5-5-5-5-0-|


LEAD:
E|----------------|-------------------------------------|
B|----------------|-------12-12-12-10--10-9-9-9-7--7-7--|
G|----------6-8-9-|-11h13-------------------------------|
D|-7p6-7-9--------|-------------------------------------|
A|----------------|-------------------------------------|
E|----------------|-------------------------------------|

E|-7rs12b---12--14-14-14s16-14-12-12-11----12-11----12-11----12-11----12-11----|
B|--------------------------------------12-------12-------12-------12-------12-|
G|-----------------------------------------------------------------------------|
D|-----------------------------------------------------------------------------|
A|-----------------------------------------------------------------------------|
E|-----------------------------------------------------------------------------|

E|-s17-16----s17-16----s17-16----s17-16----|-12-12-12-11---------------------------|
B|--------17--------17--------17--------17-|-------------12------------------------|
G|-----------------------------------------|----------------11--9h11s13b--11s9s11b-|
D|-----------------------------------------|---------------------------------------|
A|-----------------------------------------|---------------------------------------|
E|-----------------------------------------|---------------------------------------|
					    *Eto yung di ako gaano sure kasi medyo
                                             mabilis na tsaka acoustic ang gitara ko,
                                             LUMA PA at kakaopera lang.. Pero katunog nya!!!
                                             hehe.. pag may mali, paki ayos nyo nalang po..

E|-------------------------------------------|
B|--------10-10-10---------------------------|
G|-9h11------------9-9-9---------------------|
D|-----------------------9-9-9-7-7-7-6h7p6---|
A|-----------------------------------------7-|
E|-------------------------------------------|

############################
##        CHORUS          ##
############################

RYTHM ACOUSTIC:
    E     B5   C#5    A2  
E|--0--|--0--|--0--|--0--|
B|--0--|--0--|--0--|--0--|
G|--1--|--4--|--6--|--2--|
D|--2--|--4--|--6--|--2--|
A|--2--|--2--|--4--|--0--|
E|--x--|--x--|--x--|--x--|

E                     B       C#m
tulad ng mundong hindi tumitigil sa pagikot
     A2
pag-ibig di mapapagod


RYTHM ELECTRIC:
    E     B    C#m    A2
E|--x--|--x--|--x--|-----|
B|--x--|--x--|--x--|--2--|
G|--1--|--4--|--6--|--2--|
D|--2--|--4--|--6--|--0--|
A|--2--|--2--|--4--|--x--|
E|--x--|--x--|--x--|--x--|

BASS
G|---------------------|---------------------|---------------------|---------------------|
D|---------------------|---------------------|---------------------|---------------------|
A|---------------------|-2---2--2--2--2--2-2-|-4---4--4--4--4--4-4-|-0---0--0--0--0--0-0-|
E|-0---0--0--0--0--0-0-|---------------------|---------------------|---------------------|


E                     B       C#m
tulad ng ilog na hindi tumitigil sa pagagos
     A2
pag-ibig di matatapos


INTRO TAB ULI:

RYTHM: ELECTRIC
    E     B    C#m    A2
E|--x--|--x--|--x--|-----|
B|--x--|--x--|--x--|--2--|
G|--1--|--4--|--6--|--2--|
D|--2--|--4--|--6--|--0--|
A|--2--|--2--|--4--|--x--|
E|--x--|--x--|--x--|--x--|

LEAD:
   E               B               C#m         A2
E|---7---------------7---------------7------------------------------|
B|-----7---7h9-7v------7---7h9-7v------7---7-9-9s10-9---9s10-9------|
G|-9-----9---------9-----9---------9-----9------------9--------9----|
D|------------------------------------------------------------------|
A|------------------------------------------------------------------|
E|------------------------------------------------------------------|

   E               B               C#m         A2
E|---7---------------7---------------7------------------------------|
B|-----7---7h9p7r------7---7h9p7r------7---7-9-9s10-9---9s12v-------|
G|-9-----9---------9-----9---------9-----9--------------------------|
D|------------------------------------------------------------------|
A|------------------------------------------------------------------|
E|------------------------------------------------------------------|

BASS:
G|--------------------------------------------------------|-----------------------|
D|--------------------------------------------------------|-----------------------|
A|-------------------2-2-2-2-2-2-2-2-2--2h4-4-4-4-4-4-4-4-|---0h2-0---0h2-0-2p0---|
E|--0-0-0-0-0-0-0-0---------------------------------------|--0-------0----------0-|
							   *imbento ko nalang to mga dudes..
                                                            di ko na kasi marinig..
                                                            pero promise, okay naman eh.. hehe
BASS:
    E                B                  C#m                  A2
G|--------------------------------------------------------|----------|
D|--------------------------------------------------------|--------2-|
A|-------------------2-2-2-2-2-2-2-2-2--2h4-4-4-4-4-4-4-4-|--0-2-0---|
E|--0-0-0-0-0-0-0-0---------------------------------------|----------|
							   *imbento ko nalang to mga dudes..
                                                            di ko na kasi marinig..
                                                            pero promise, okay naman eh.. hehe



Ayan!!! TAPOS NA!!! Sana magustuhan nyo tong tab na talaga naman pinaghirapan ko!!!
hehehe!!! halos itim na daliri ko kakaslide sa adlib.. nyaheheh.. ok na yan!!!
eto ang pangalawang tab na ginawa ko.. tinab ko yung pwede ba ng soapdish pero
di tinanggap.. sana tanggapin to.. dahil pinaghirapan ko talaga to!!!
PLEASE PO PAKI RATE YUNG TAB KO... SALAMAT PO NG MARAMI.. ADD NAMAN JAN SA FRIENDSTER!!!
VISIT DIN MY BLOG... SALAMAT 

Pasensya na kung puro di ako sure.. di ako sure at di ako sure..
dahil talagang di ako sure.. kasi nga, 2nd time ko lang..
            
Submit corrections

comments powered by Disqus
↑ Back to top | Callalily Tabs for Magbalik. Lyrics for acoustic guitar and electric guitar. Tablatures and chords are parodies/interpretations of the original songs. You may use it for private study, scholarship, research or language learning purposes only