>
 >
Magbalik

Magbalik Guitar Tabs

Callalily - Magbalik chords, tabs, tablatures, lyrics

Guitar lessons | Add/correct | Request | Top 50 tabs Artists:  A B C D E F G H I J K L M N O P Q R S T U V W X Y Z 0-9

Magbalik Guitar Tabs – Callalily

CD, Sheet music, Poster

Do you like Magbalik? Share with your friends now
Bass TabsBass Tabs v2Bass Tabs v3Bass Tabs v4Bass Tabs v5Bass Tabs v6Bass Tabs v7ChordsChords v2Chords v3Chords v4TabsTabs v2Tabs v3Tabs v4Tabs v5Tabs v6Tabs v7Tabs v8Tabs v9Ukulele

Intro part 1:(Bass)
G|-------------|-------------|
D|-----4-4/6~--|----2--------|
A|---2---------|--0---2/4----| 2x
E|--0----------|-------------|

Intro part 2:
Guitar 1:
e|------------------------------------------|
B|------------------------------------------|
G|--99999999--44444444--66666666------------|
D|--99999999--44444444--66666666--77777777--| 2x
A|--77777777--22222222--44444444--77777777--|
E|--------------------------------55555555--|
Guitar 2:
e|----7-----------|----7-----------|----7---------------------------------|
B|-5-5-7-5-7/9-7--|-5-5-7-5-7/9-7--|-5-5-7-5-7/9-7-9/10-9-9/10-9-7\5------|
G|----------------|----------------|--------------------------------------|
D|----------------|----------------|--------------------------------------|
A|----------------|----------------|--------------------------------------|
E|----------------|----------------|--------------------------------------|
(continued)
e|----7-----------|----7-----------|----7---------------------------------|
B|-5-5-7-5-7/9-7--|-5-5-7-5-7/9-7--|-5-5-7-5-7/9-7-9/10-9-9/12~~----------|
G|----------------|----------------|--------------------------------------|
D|----------------|----------------|--------------------------------------|
A|----------------|----------------|--------------------------------------|
E|----------------|----------------|--------------------------------------|

Verse:(Acoustic)
e|--00000000--00000000--00000000--00000000--|
B|--00000000--00000000--00000000--22222222--|
G|--11111111--44444444--66666666--22222222--|
D|--22222222--44444444--66666666--22222222--| 4x
A|--22222222--22222222--44444444------------|
E|------------------------------------------|

Refrain:
e|----------------------|----------------------|
B|----------------------|----------------------|
G|------------44444444--|------------44444444--|
D|--44444444--44444444--|--44444444--44444444--|
A|--44444444--22222222--|--44444444--22222222--|
E|--22222222------------|--22222222------------|
(continued)                                      Guitar 2:(Fill in)
e|----------------------|----------------------| |-------------|
B|----------------------|----------------------| |-------------|
G|------------44444444--|----------------------| |-------------|
D|--44444444--44444444--|--77777777--99999999--| |-------------|
A|--44444444--22222222--|--77777777--99999999--| |-----7h9-7~--|
E|--22222222------------|--55555555--77777777--| |--7h9--------|

Chorus:
(Acoustic)
e|--00000000--00000000--00000000--00000000--|
B|--00000000--00000000--00000000--22222222--|
G|--11111111--44444444--66666666--22222222--|
D|--22222222--44444444--66666666--22222222--| 
A|--22222222--22222222--44444444------------|
E|------------------------------------------|
(continued)
e|------------------------------------------|
B|------------------------------------------|
G|--99999999--44444444--66666666------------|
D|--99999999--44444444--66666666--77777777--|
A|--77777777--22222222--44444444--77777777--|
E|--------------------------------55555555--|

Interlude:
Guitar 1:
e|------------------------------------------|
B|------------------------------------------|
G|--99999999--44444444--66666666------------|
D|--99999999--44444444--66666666--77777777--|
A|--77777777--22222222--44444444--77777777--|
E|--------------------------------55555555--|
Guitar 2:
e|----7-----------|----7-----------|----7---------------------------------|
B|-5-5-7-5-7/9-7--|-5-5-7-5-7/9-7--|-5-5-7-5-7/9-7-9/10-9-9/10-9-7\5------|
G|----------------|----------------|--------------------------------------|
D|----------------|----------------|--------------------------------------|
A|----------------|----------------|--------------------------------------|
E|----------------|----------------|--------------------------------------|

Verse:
e|--00000000--00000000--00000000--00000000--|
B|--00000000--00000000--00000000--22222222--|
G|--11111111--44444444--66666666--22222222--|
D|--22222222--44444444--66666666--22222222--| 4x
A|--22222222--22222222--44444444------------|
E|------------------------------------------|

Refrain:
e|----------------------|----------------------|
B|----------------------|----------------------|
G|------------44444444--|------------44444444--|
D|--44444444--44444444--|--44444444--44444444--|
A|--44444444--22222222--|--44444444--22222222--|
E|--22222222------------|--22222222------------|
(continued)
e|----------------------|----------------------|
B|----------------------|----------------------|
G|------------44444444--|----------------------|
D|--44444444--44444444--|--77777777--99999999--|
A|--44444444--22222222--|--77777777--99999999--|
E|--22222222------------|--55555555--77777777--|

Chorus:
e|---------------------------------------|
B|--------------P------------------------|
G|--99999999--4-A----66666666------------|
D|--99999999--4-U----66666666--77777777--| 2x
A|--77777777--2-S----44444444--77777777--|
E|--------------E--------------55555555--|

Adlib:
Guitar 1:
e|------------------------------------------------------------------|
B|------------------------------------------------------------------|
G|--99999999--44444444------------9--9-11--11-13--13-14--13--11--9--|
D|--99999999--44444444--77777777--9--9-11--11-13--13-14--13--11--9--|
A|--77777777--22222222--77777777--7--7-9---9--11--11-12--11--9---7--|
E|----------------------55555555------------------------------------|
(continued)
e|----------------------------------------|
B|----------------------------------------|
G|--66666666--44444444--------------------|
D|--66666666--44444444--7777777777777777--|
A|--44444444--22222222--7777777777777777--|
E|----------------------5555555555555555--|
Guitar 2:
e|-------------------------------------------------7/12-121212121212--|
B|-------------------12121212-10101010-9999-777777--------------------|
G|--------6h8h9~-1111-------------------------------------------------|
D|---6h7h9------------------------------------------------------------|
A|--7-----------------------------------------------------------------|
E|--------------------------------------------------------------------|
(continued)
e|--12-1214-1416-1614-1412-12-12p11----------------------------|
B|-------------------------------------------------------------|
G|-------------------------------------------------------------|
D|-------------------------------------------------------------|
A|-------------------------------------------------------------|
E|-------------------------------------------------------------|
(continued)
e|----12-11---12-11---12-11---12-11----17-16---17-16---17-16----17-16--|
B|--12------12------12------12---------------17------17------17--------|
G|---------------------------------------------------------------------|
D|---------------------------------------------------------------------|
A|---------------------------------------------------------------------|
E|---------------------------------------------------------------------|
(continued)
e|--1212-1111----------------------------------------------------------|
B|-----------12----------------------10101010--------------------------|
G|-------------9h11-12b---9----9-9h11---------9999---------------------|
D|--------------------------11---------------------9999-7777-6h7-6-9~--|
A|-----------------------------------------------------------------7~--|
E|---------------------------------------------------------------------|

Chorus:
(Acoustic)
e|--00000000--00000000--00000000--00000000--|
B|--00000000--00000000--00000000--22222222--|
G|--11111111--44444444--66666666--22222222--|
D|--22222222--44444444--66666666--22222222--| 
A|--22222222--22222222--44444444------------|
E|------------------------------------------|
(continued)
e|------------------------------------------|
B|------------------------------------------|
G|--99999999--44444444--66666666------------|
D|--99999999--44444444--66666666--77777777--|
A|--77777777--22222222--44444444--77777777--|
E|--------------------------------55555555--|

Outro:
Guitar 1:
e|------------------------------------------|
B|------------------------------------------|
G|--99999999--44444444--66666666------------|
D|--99999999--44444444--66666666--77777777--| 2x
A|--77777777--22222222--44444444--77777777--|
E|--------------------------------55555555--|
Guitar 2:
e|----7-----------|----7-----------|----7---------------------------------|
B|-5-5-7-5-7/9-7--|-5-5-7-5-7/9-7--|-5-5-7-5-7/9-7-9/10-9-9/10-9-7\5------|
G|----------------|----------------|--------------------------------------|
D|----------------|----------------|--------------------------------------|
A|----------------|----------------|--------------------------------------|
E|----------------|----------------|--------------------------------------|
(continued)
e|----7-----------|----7-----------|----7---------------------------------|
B|-5-5-7-5-7/9-7--|-5-5-7-5-7/9-7--|-5-5-7-5-7/9-7-9/10-9-9/12~~----------|
G|----------------|----------------|--------------------------------------|
D|----------------|----------------|--------------------------------------|
A|----------------|----------------|--------------------------------------|
E|----------------|----------------|--------------------------------------|

enjoy.......





Comments


Popular Callalily tabs & chords
Liwanag Chords
Stars Chords
Takipsilim 3 Chords
You And I Chords
You I Chords
Dreams Tabs
Pasan 2 Tabs
Sanctuary 1 Tabs
Take My Hand 2 Tabs
Akoy Babalik Ukulele


Song lyrics



↑ Back to top | Tablatures and chords are parodies/interpretations of the original songs. You may use it for private study, scholarship, research or language learning purposes only
© 2014 AZChords.com Contact us | Privacy policy | DMCA | Add/correct tabs | Request tabs | Top 50 tabs