» » »

Callalily, Magbalik Bass tabs (ver.1)

Artists:  A B C D E F G H I J K L M N O P Q R S T U V W X Y Z # 

Magbalik Bass tabs (ver.1)

Callalily Tabs
 Rating:
3.2/5 (20 votes)
Magbalik lessons Tabs too difficult? Try these video lessons and learn fast
1
                Magbalik by Callalily
tuning: EADG

dedicated song ko toh para sa mga backslider... pag nadapa kau pls bumangon kayo 
ok...Jesus Loves you!

note: wag nyo muna lagyan ng rate.. salamat! baka may baguhin pa ako eh :)

intro:
guys ung sa intro 4s6 ung ginawa ko sa G string... pero pwede din ung 2s4 depende 
sa pandinig nyo mababa kasi masyado...

G|--------------------4s6-------|
D|----------4s6-----------------|2x
A|-------2-------0---(2s4)------|
E|---0--------------0-----------|


G|---------------------------------------|
D|---------------------------------------|
A|-----------------------------00000000--|
E|--00000000-77777777-99999999-----------|

G|---------------------------------------|
D|------------------------------7---s9---|
A|--------------------44444444-----------|
E|--00000000-77777777-------------4------|

verse:

G|------------------------------|
D|------------------------------|4x
A|------------------------------|
E|---0---7---7-7s9--9s5---------|

pwede rin ung sa d string ---9-9s11--11s7--- ipalit nyo d2 -7-7s9--9s5--

G|-----------------------------|
D|-----------------------------|
A|-----------------------------|
E|---7slide up-----------------|

pre-chorus:
G|---------------------------------------------------|
D|---------------9------------11-9-9-----------------|
A|------------7-------------9---------7-9------------|
E|--22-2--77--------22-2-77---------------22-2-77-7--|


G|--------------------|---------------------9h11---|
D|--------------------|----------------9h11--------|
A|--00000000-22222222-|----------------------------|
E|--------------------|---slide down-7-------------|

chorus:
G|--------------|-------------------|
D|--------------|-------------------|
A|--------------|-----------4-------|
E|--slide up-7--|-----0---7----5----|

intro:
G|---------------------------------------|
D|---------------------------------------|
A|-----------------------------00000000--|
E|--00000000-77777777-99999999-----------|

G|---------------------------------------|
D|------------------------------7---s9---|
A|--------------------44444444-----------|
E|--00000000-77777777-------------4------|

verse:

G|-----------------------------|
D|-----------------------------|4x
A|-----------------------------|
E|---0---7---77s9--9s5---------|

G|-----------------------------|
D|-----------------------------|
A|-----------------------------|
E|---7slide up-----------------|

pre-chorus:

pre-chorus:
G|---------------------------------------------------|
D|---------------9------------11-9-9-----------------|
A|------------7-------------9---------7-9------------|
E|--22-2--77--------22-2-77---------------22-2-77-7--|


G|--------------------|----------------------------|
D|--------------------|----------------------------|
A|--00000000-22222222-|----------------------------|
E|--------------------|---slide down-7-777-7-777---|

chorus:
G|-----------------------------------------------------------------|
D|-----------------------------------------------------------------|
A|----------------44-4---------------------------------44-4--------|
E|---0-0-7(pause)------55-5---00-0---7(pause)-17slideup------55-5--|

refrain:
G|--------------------------|
D|--------------------------|
A|--44-4--------------------|
E|-------77-7-55-5----------|

G|---------------------------------------------------|
D|---------------------------------------------------|
A|--4-6-7-9-7-6-77777777-66666666--------------------|
E|--------------------------------55555555-555555555-|

guys pakinggan nyo ung solo guitar tapos itiming nyo lang ung bass...


Lyrics:

Wala nang dating pagtingin 
sawa na ba sa king lambing 
wala ka namang dahilan 
bakit bigla na lang nang-iwan? 

di na alam ang gagawin 
upang ika'y magbalik sa kin 
ginawa ko naman ang lahat 
bakit bigla na lang naghanap 

hindi magbabago 
pagmamahal sa iyo 
sana'y pakinggan mo 
ang awit ng pusong ito 

tulad ng mundong hindi tumitigil 
sa pag-ikot 
pag-ibig di mapapagod 
tulad ng ilog na hindi tumitigil 
sa pag-agos 
pag-ibig di matatapos 

alaala'y bumabalik 
mga panahong nasasabik 
sukdulang mukha mo ay laging nasa panaginip 
bakit biglang pinagpalit 
pagsasamahan tila nawaglit 
ang dating walang hanggan 
nagkaroon ng katapusan 

hindi magbabago 
pagmamahal sa iyo 
sana'y pakinggan mo 
ang awit ng pusong ito 

tulad ng mundong hindi tumitigil 
sa pag-ikot 
pag-ibig di mapapagod 
tulad ng ilog na hindi tumitigil 
sa pag-agos 
pag-ibig di matatapos
            
Submit corrections

comments powered by Disqus
↑ Back to top | Callalily Bass for Magbalik. Lyrics for acoustic guitar and electric guitar. 1 Tablatures and chords are parodies/interpretations of the original songs. You may use it for private study, scholarship, research or language learning purposes only