» » »

Callalily, Luha Tabs (ver.1)

Artists:  A B C D E F G H I J K L M N O P Q R S T U V W X Y Z # 

Luha Tabs (ver.1)

Callalily Tabs
Rating:
5/5 (1 vote)
Luha lessons Tabs too difficult? Try these video lessons and learn fast
                
For any comments and Suggestion:


        This is the new song of Callalily from their new album      
                              "Fisheye"..
                Kung may mali man,..pakicomment kaagad..tnx!

Intro 1:

Guitar 2:
e---------------------------|
b---------------------------|
g---------------------------|
D---------------------------| 4x
A---7\5/7\4\5\7\5/4/5-------|
E---5\3/5\2\3\5\3/2/3-------|

Intro 2:

Guitar 2:
e---------------------------|
b---------------------------|
g---------------------------|
D---7\5/7\4\5\7\5/4/5-------| 4x
A---7\5/7\4\5\7\5/4/5-------|
E---5\3/5\2\3\5\3/2/3-------|

Verse 2:

Guitar 1:
nakahandusay....
                
e-----55--55---55---55--55----|
b-----55--55---55---55--55----|
g-----------------------------|
D-----------------------------|
A-----------------------------|
E-----------------------------|

Guitar 2:

Ika’y naliligaw
e-----------------------------------|
b-----------------------------------|
g-----------------------------------|
D---7777----4444----77777-----4444--|
A---7777----4444----77777-----4444--|
E---5555----2222----55555-----2222--|

Pag-asa…                               
e---------------------|
b---------------------|
g-------------77777---|
D----5555-----77777---|
A----5555-----55555---|
E----3333-------------|

Pumikit ka lang…..
e----------------------------------------------------|
b----------------------------------------------------|
g---------------------------------77777--------------|
D-----77777-----44444----5555-----77777--77777—55555-|
A-----77777-----44444----5555-----55555--77777—55555-|
E-----55555-----22222----3333------------55555—33333-|

May liwanag na makikita…
e-------------------------------------------------|
b-------------------------------------------------|
g----7777777/--999999-/--11111111-/-1414141414----|
D----xxxxxxx-/-xxxxxx-/--xxxxxxxx-/-xxxxxxxxxxxx--|
A----555555-/-777777-/--9999999-/--1212121212-----|
E-------------------------------------------------|

Guitar 2:
Pumikit ka lang…..
e----------------------------------------------------|
b----------------------------------------------------|
g---------------------------------77777--------------|
D-----77777-----44444----5555-----77777--77777—55555-|
A-----77777-----44444----5555-----55555--77777—55555-|
E-----55555-----22222----3333------------55555—33333-|

Guitar 1:
May liwanag na makikita…
e-------------------------------------------------|
b-------------------------------------------------|
g----7777777/--999999-/--11111111-/-1414141414----|
D----xxxxxxx-/-xxxxxx-/--xxxxxxxx-/-xxxxxxxxxxx---|
A----555555-/-777777-/--9999999-/--1212121212-----|
E-------------------------------------------------|

Intro:

Guitar 2:
Nasaan na…Luha…
e---------------------------|
b---------------------------|
g---------------------------|
D---------------------------| 
A---7\5/7\4\5\7\5/4/5-------|
E---5\3/5\2\3\5\3/2/3-------|

Verse 2:

Guitar 1:
Nalulunod na ang yong.mga mata..
e-----55--55---55---55--55----|
b-----55--55---55---55--55----|
g-----------------------------|
D-----------------------------|
A-----------------------------|
E-----------------------------|

Guitar 2:
Di mo na..kayang…
e-----------------------------------|
b-----------------------------------|
g-----------------------------------|
D---7777----4444----77777-----4444--|
A---7777----4444----77777-----4444--|
E---5555----2222----55555-----2222--|

Damdamin…
e-----------------------------------|
b-----------------------------------|
g-----------------------------------|
D---7777----4444----77777-----4444--|
A---7777----4444----77777-----4444--|
E---5555----2222----55555-----2222--|

Chorus:
Pumikit ka lang…..
e----------------------------------------------------|
b----------------------------------------------------|
g---------------------------------77777--------------|
D-----77777-----44444----5555-----77777--77777—55555-|
A-----77777-----44444----5555-----55555--77777—55555-|
E-----55555-----22222----3333------------55555—33333-|

Guitar 1:
May liwanag na makikita…
e-------------------------------------------------|
b-------------------------------------------------|
g----7777777/--999999-/--11111111-/-1414141414----|
D----xxxxxxx-/-xxxxxx-/--xxxxxxxx-/-xxxxxxxxxxxx--|
A----555555-/-777777-/--9999999-/--1212121212-----|
E-------------------------------------------------|

Guitar 2:
Pumikit ka lang.
e----------------------------------------------------|
b----------------------------------------------------|
g---------------------------------77777--------------|
D-----77777-----44444----5555-----77777--77777—55555-|
A-----77777-----44444----5555-----55555--77777—55555-|
E-----55555-----22222----3333------------55555—33333-|

Adlib:  Guitar 1 (inaayos ko pa un lead)

Guitar 2:
e----------------------------------------------------|
b----------------------------------------------------|
g---------------------------------77777--------------|
D-----77777-----44444----5555-----77777--77777—55555-|
A-----77777-----44444----5555-----55555--77777—55555-|
E-----55555-----22222----3333------------55555—33333-|

e-------------------------------------------------|
b-------------------------------------------------|
g----7777777/--999999-/--11111111-/-1414141414----|
D----xxxxxxx-/-xxxxxx-/--xxxxxxxx-/-xxxxxxxxxxxx--|
A----555555-/-777777-/--9999999-/--1212121212-----|
E-------------------------------------------------|

Bridge:
Ika’y naliligaw…
e-----------------------------------|
b-----------------------------------|
g-----------------------------------|
D---7777----4444----77777-----4444--|
A---7777----4444----77777-----4444--|
E---5555----2222----55555-----2222--|

Pag-asa…                               
e---------------------|
b---------------------|
g-------------77777---|
D----5555-----77777---|
A----5555-----55555---|
E----3333-------------|

Chorus: (Twice)
Guitar 2:
Pumikat ka lang…

e----------------------------------------------------|
b----------------------------------------------------|
g---------------------------------77777--------------|
D-----77777-----44444----5555-----77777--77777—55555-|
A-----77777-----44444----5555-----55555--77777—55555-|
E-----55555-----22222----3333------------55555—33333-|

e-------------------------------------------------|
b-------------------------------------------------|
g----7777777/--999999-/--11111111-/-1414141414----|
D----xxxxxxx-/-xxxxxx-/--xxxxxxxx-/-xxxxxxxxxxxx--|
A----555555-/-777777-/--9999999-/--1212121212-----|
E-------------------------------------------------|

Intro:

Nasaan na...Luha..
e---------------------------|
b---------------------------|
g---------------------------|
D---9\7/9\6\7\9\7/9\6/7-----| 4x
A---9\7/9\6\7\9\7/9\6/7-----|
E---7\5/7\4\5\7\5/7\4/5-----|

Lyrics:

Nakahandusay sa likuran ng pintuan.
Hindi alam ang pupuntahan.
Ika’y naliligaw, ika’y nasasabaw.
Ika’y nawawalan ng pag-asa.

Pumikit ka lang,
may liwanag ding makikita.
Lugar ng hiwaga
Pumikit ka lang,
may liwanag ding makikita.
Punasan na ang luha.

Nalulunod na ang ‘yong mga mata,
tila wala ka nang makita.
Hindi mo na kayang languyin
ang ilog ng iyong damdamin.
Tagos sa damdamin

Pumikit ka lang,
may liwanag ding makikita.
Lugar ng hiwaga
Pumikit ka lang,
may liwanag ding makikita.
Punasan na ang luha.

Ika’y naliligaw, ika’y nasasabaw,
ikaw nawawalan ng pag-asa.
Maniwala ka.

Pumikit ka lang,
may liwanag ding makikita.
Lugar ng hiwaga
Pumikit ka lang,
may liwanag ding makikita.
Punasan ang iyong luha.
            
Submit corrections

comments powered by Disqus
↑ Back to top | Callalily Tabs for Luha. Lyrics for acoustic guitar and electric guitar. Tablatures and chords are parodies/interpretations of the original songs. You may use it for private study, scholarship, research or language learning purposes only