» » »

Kundiman Tabs (ver.1)

Artists:  A B C D E F G H I J K L M N O P Q R S T U V W X Y Z # 

Kundiman Tabs (ver.1)

Callalily
Rating:
0/5 (0 votes)

Hard to play? Try these video lessons and learn fast.
                (Intro)


e|------------------------------------------------------------------|
b|------------------------------------------------------------------|
g|------------------------------------------------------------------|
d|----9----11-9--9/11--13 13 13---13--16----------------------------|
a|-4/7--99----------------------------------------------------------|
E|------------------------------------------------------------------|

e|-----------------------------------------------------------------|
b|-----------------------------------------------------------------|
g|-----------------------------------------------------------------|
d|----9----11-9--9/11--13 13 13------------------------------------|
a|-4/7--99---------------------------------------------------------|
E|-----------------------------------------------------------------|




In this part, I guess it lacks some notes.
e|---6/7 (keep on slidin')------------------------------------------|
b|-7-----------------------7----------------------------------------|
g|------------------------------------------------------------------|

Do the chord thing after this.


verse:    E F# E                 (Para kang asukal)
Refrain:  E F# E F#              (Kaya't wag magtataka)
Chorus:   E F# E F# 2x           (Kung hindi man tayo hanggang dulo)
Intro:    E F# E(4x)
verse 2:  E F# E                 (Di baleng maghapon na umulan)

Bridge:

 D#m    E
Bahala  na
 D#m    G#m         C#m
ayoko  munang    magsalita
  A           G#m
hayaan na muna natin ang
  G         F#
hatol ng tadhana

Outro: E F# E (4x)


Tere, tere, tere :)
            
Hard to play? Try these video lessons and learn fast. | Correct




comments powered by Disqus
↑ Back to top | Tablatures and chords are parodies/interpretations of the original songs. You may use it for private study, scholarship, research or language learning purposes only