>
 >
Insane 3

Insane 3 Guitar Tabs

Callalily - Insane 3 chords, tabs, tablatures, lyrics

Guitar lessons | Add/correct | Request | Top 50 tabs Artists:  A B C D E F G H I J K L M N O P Q R S T U V W X Y Z 0-9

Insane 3 Guitar Tabs – Callalily

CD, Sheet music, Poster

Do you like Insane 3? Share with your friends now
ChordsTabsTabs v2Tabs v3Tabs v4Ukulele
INSANE 
CALLALILY
DESTINATION XYZ


INTRO 1:
GUITAR 2(LEAD)
e------4----4-4----4---4-4-----5---5-5----7---7-7----------| 2X
B---5-5--5-5-5--4-4-4-4-4---5-5-5-5-5--5-5-5-5-5-----------|
G----------------------------------------------------------|
D----------------------------------------------------------|
A----------------------------------------------------------|
E----------------------------------------------------------|

GUITAR 1(RHYTM)
e|-------------------|
B|-------------------|
G|-------------------|
D|----5----5----5----|
A|----5----5----5----|
E|----3----3----3----|

INTRO 2:
(BOTH GUITARS)
e|-----------------------------------------------------|
B|-----------------------------------------------------|
G|--------------------------5-5-5-5----7-7-7-7---------|
D|----5-5-5-5----9-9-9-9----5-5-5-5----7-7-7-7---------|
A|----5-5-5-5----9-9-9-9----3-3-3-3----5-5-5-5---------|
E|----3-3-3-3----7-7-7-7-------------------------------|

VERSE:
SAME WITH INTRO 2
BUT FOR GUITAR 1 IS PALM MUTE
AND FOR GUITAR 2 IS ONE STRUM PER 8 BEATS

REFRAIN:
e|------------------------|     
B|------------------------|     
G|------------------------| 3X  
D|----7-7-7-7----5-5-5-5--|     
A|----7-7-7-7----5-5-5-5--|     
E|----5-5-5-5----3-3-3-3--|     

 |------------------------------------------|
 |------------------------------------------|
 |-----------------------7-7-7-7-7-7-7-7----|
 |----3-3-3-3-3-3-3-3----7-7-7-7-7-7-7-7----|
 |----3-3-3-3-3-3-3-3----5-5-5-5-5-5-5-5----|
 |----1-1-1-1-1-1-1-1-----------------------|

CHORUS:
e|----------------------------------------------|
B|----------------------------------------------|
G|---------------7-7-7-7----9-9-9-9----5-5-5-5--|
D|----5-5-5-5----7-7-7-7----9-9-9-9----5-5-5-5--|
A|----5-5-5-5----5-5-5-5----7-7-7-7----3-3-3-3--|
E|----3-3-3-3-----------------------------------|

REPEAT INTRO 2

REPEAT VERSE

REPEAT REFRAIN

REPEAT CHORUS

BRIDGE:
GUITAR 1(RHYTM)
DO INTRO 2 CHORDS

GUITAR 2(LEAD SOLO)
e|--------------8-8-8--7-7-7--5-5-5---|
B|----8-8-8---------------------------|
G|---------7-7-7----------------------|
D|------------------------------------|
A|------------------------------------|
E|------------------------------------|

e|--------------10-10-10--8-8-8--7-7-7---|
B|----8-8-8------------------------------|
G|---------7-7-7-------------------------|
D|---------------------------------------|
A|---------------------------------------|
E|---------------------------------------|
    
e|-------------------|-------------------|
B|--8-8-8-------8-8--|--8-------8-8------|
G|--------7-7-7------|----5-5-5-----5-5--|
D|-------------------|-------------------|
A|-------------------|-------------------|
E|-------------------|-------------------|
    E E E E E E  E  E      E  E  E  E 
e|--7-7-7-8-8-8-10-10--|--10-10-10-10-------------------|
B|---------------------|--------------------------------|
G|---------------------|--------------------------------|
D|---------------------|--------------------------------|
A|---------------------|--------------------------------|
E|---------------------|--------------------------------|

REPEAT REFRAIN

REPEAT CHORUS (ACOUSTIC)
G-D-Em-C

REPEAT CHORUS WITH DISTORTION

REPEAT INTRO 2

OUTRO:
e|------------------------------|
B|------------------------------|
G|---------4-4----5-5--7-7-5-4--|
D|--5-5----4-4----5-5--7-7-5-4--|
A|--5-5----2-2----3-3--5-5-3-2--|
E|--3-3-------------------------|

e|--------------------------------|
B|--------------------------------|
G|---------4-4----5-5--7-7-5-4----|
D|--5-5----4-4----5-5--7-7-5-4-55-|
A|--5-5----2-2----3-3--5-5-3-2-55-|
E|--3-3------------------------33-|

Guitar 2:
e|-------------------------------------------------|
B|-------------------------------------------------|
G|---------------4-4----------5-5---------7-7-5-4--|
D|--5-5----------4-4-4-3h4-3--5-5-5-4h5-5-7-7-5-4--|
A|--5-5-5-4h5-4--2-2----------3-3---------5-5-3-2--|
E|--3-3--------------------------------------------|

e|---------------------------------------------------|
B|---------------------------------------------------|
G|---------------4-4----------5-5---------7-7-5-4----|
D|--5-5----------4-4-4-3h4-3--5-5-5-4h5-5-7-7-5-4-55-|
A|--5-5-5-4h5-4--2-2----------3-3---------5-5-3-2-55-|
E|--3-3-------------------------------------------33-|

END
TNX 2 MY FELLO HB'S
WAHAHAHAHHAHA





Comments


Popular Callalily tabs & chords
Kung Kaya Ko Lang Chords
Nananaginip 1 Chords
Pasasalamat 1 Chords
You And I Chords
Dito Ka Lang Tabs
Kung Kaya Ko Lang 1 Tabs
Muli Tabs
Pasan 5 Tabs
Takipsilim 1 Tabs
Bisyo Ukulele


Song lyrics



↑ Back to top | Tablatures and chords are parodies/interpretations of the original songs. You may use it for private study, scholarship, research or language learning purposes only
© 2014 AZChords.com Contact us | Privacy policy | DMCA | Add/correct tabs | Request tabs | Top 50 tabs