>
 >
Insane 2

Insane 2 Guitar Tabs

Callalily - Insane 2 chords, tabs, tablatures, lyrics

Guitar lessons | Add/correct | Request | Top 50 tabs Artists:  A B C D E F G H I J K L M N O P Q R S T U V W X Y Z 0-9

Insane 2 Guitar Tabs – Callalily

CD, Sheet music, Poster

Do you like Insane 2? Share with your friends now
ChordsTabsTabs v2Tabs v3Tabs v4Ukulele

Kapa.kapa by: j0k
Inspired by: maan


..mj0 d aq xur d2..hehe..k2n0g lng s guitar q eh..
..kau nrin bhala s strumming..pknggan nyo nlng ung song..
..sna tma..


..ddc8d nga pla 2ng song n 2 kay MAAN..
..i.luv.u.pangga!!..



Chords used:

A - 577xxx
C#m - x466xx
D - x577xx
E - x755xx
B - 799xxx



intro:

Guitar2:
e-----4--4-4---4--4-4---5--5-5---7--7-7----------| }2x i2
B---55-55-5--44-44-4--55-55-5--55-55-5-----------|
G------------------------------------------------|
D------------------------------------------------|
A------------------------------------------------|
E------------------------------------------------|

Guitar1:
e-----------| } ftr 2 nung unang pasok ng guitar2
B-----------|
G-----------|
D---7~------|
A---7~------|
E---5~------|


Guitar2:
e--------------------------------|
B--------------------------------|
G-----------9--------------------|
D---7-7-7s9-----7-7-7s9----------|
A-----------------------7-5-7----|
E--------------------------------|

e--------------------------------|
B--------------------------------|
G-----------9--------------------|
D---7-7-7s9-----7-7-7s9----------|
A-----------------------7-5-7-9--|
E--------------------------------|

Guitar1: A-C#m-D-E (2x)



Verse:

A   C#m          D       E
i can't sleep alone no more
A       C#m       D            E
since the day i 1st heard your voice
A C#m   D        E
i lie awake in bed
A       C#m       D         E
with thoughts of you in my head



Pre-chorus:

B		C#m
i know i dont deserve you
B		C#m
but thank God i found you
B		C#m
to have you and to hold you
D
would be the greatest thing
              E
that i could ever know



Chorus:

A	   C#m	
and if im dreaming
D	      E
please dont wake me up
A          C#m
coz i'd go insane
D             E
without you near me
A               C#m
and while you're sleeping
D           E
im still standing up
A          C#m
coz i'd go insane
D             E       A-C#m-D-E
without you near me


Interlude:

Guitar1: A-C#m-D-E

Guitar2:

Guitar2:
e--------------------------------|
B--------------------------------|
G-----------9--------------------|
D---7-7-7s9-----7-7-7s9----------|
A-----------------------7-5-7----|
E--------------------------------|

e--------------------------------|
B--------------------------------|
G-----------9--------------------|
D---7-7-7s9-----7-7-7s9----------|
A-----------------------7-5-7-9--|
E--------------------------------|



Verse 2:

A   C#m        D       E
when i look into your eyes
A   C#m          D       E
my mind drifts into the sky
A  C#m      D        E
i tilt my head and weep
A    C#m         D              E
she turns this way,my knees are weak


Pre-chorus:

B		C#m
i know i dont deserve you
B		C#m
but thank God i found you
B		C#m
to have you and to hold you
D
would be the greatest thing
              E
that i could ever know



Chorus:

A	   C#m	
and if im dreaming
D	      E
please dont wake me up
A          C#m
coz i'd go insane
D             E
without you near me
A               C#m
and while you're sleeping
D           E
im still standing up
A          C#m
coz i'd go insane
D             E       A-C#m-D-E
without you near me



Adlib: A-C#m-D-E (2x)


Pre-chorus:

B		C#m
i know i dont deserve you
B		C#m
but thank God i found you
B		C#m
to have you and to hold you
D
would be the greatest thing
              E
that i could ever know




Chorus:

A	   C#m	
and if im dreaming
D	      E
please dont wake me up
A          C#m
coz i'd go insane
D             E
without you near me
A               C#m
and while you're sleeping
D           E
im still standing up
A          C#m
coz i'd go insane
D             E       A-C#m-D-E
without you near me


Outro:
e------------------------------|
B------------------------------|
G----------66xx---77xx---9976--|
D---77xx---66xx---77xx---9976--|
A---77xx---44xx---55xx---7754--|
E---55xx-----------------------|

e---------------------------------|
B---------------------------------|
G----------66xx---77xx---9976-----|
D---77xx---66xx---77xx---9976-77--|
A---77xx---44xx---55xx---7754-77--|
E---55xx----------------------55--|





end!



..hi s mga franklin '06..s mga tr0pa q..hehe..jemoi, limmie, karl, edgar, pie..feb 3 '06 ahh..
..gemdrei! ayan ahh..yn n ung chords..
..MAAN..mhal n mhal n mhal n mhal n mhal kta! pra sau ung song n yn..hehe..miz n miz n kta!





Comments


Popular Callalily tabs & chords
Magbalik 2 Bass Tabs
Jewelry Box Chords
Minsan Chords
Kung Kaya Ko Lang 1 Tabs
Muli 1 Tabs
Stars 2 Tabs
Take My Hand 4 Tabs
Walang Sumipot Tabs
Jewelry Box Ukulele
Liwanag Ukulele


Song lyrics



↑ Back to top | Tablatures and chords are parodies/interpretations of the original songs. You may use it for private study, scholarship, research or language learning purposes only
© 2014 AZChords.com Contact us | Privacy policy | DMCA | Add/correct tabs | Request tabs | Top 50 tabs