>
 >
Insane

Insane Guitar Tabs

Callalily - Insane chords, tabs, tablatures, lyrics

Guitar lessons | Add/correct | Request | Top 50 tabs Artists:  A B C D E F G H I J K L M N O P Q R S T U V W X Y Z 0-9

Insane Guitar Tabs – Callalily

CD, Sheet music, Poster

Do you like Insane? Share with your friends now
ChordsTabsTabs v2Tabs v3Tabs v4Ukulele
Insane by Callalily

Song Name: INSANE
Band Name: CALLALILY

If you have any corrections on my tab... feel free to mai... 

Please Rate my Tab People... :)

ADD ME PLEASE:
Multiply: kenorockista (that's my ID)

hi sa mahal na mahal kong si Hosea Olga Baltazar...

:) mahal na mahal po kita!


LET'S START OFF!


Guitar 1 (Rhythm) - e B G D A E (distortion)

Guitar 2 (Lead)   - e B G D A E (distortion)

Guitar 3 (Lead)   - e B G D A E (distortion; for fill-ins; recorded guitar)

[INTRO]:

Guitar 2:

     E E E E E E E E     E E E E E E E E
e:|-------------------|--------------------|
B:|------8-----8---8--|------7-----7---7/--|
G:|--7-7---7-7---7----|--7-7---7-7---7-----|
D:|-------------------|--------------------|
A:|-------------------|--------------------|
E:|-------------------|--------------------|

(cont'd)
     E E E E E E E E     E E  E E E  E E  E
e:|-------------------|----------------------|
B:|------8-----8---8--|------10-----10---10--|
G:|--7-7---7-7---7----|--7-7----7-7----7-----|
D:|-------------------|----------------------|
A:|-------------------|----------------------|
E:|-------------------|----------------------|

Part 2 ng intro 

Guitar 1:
(Chord rings for 4 measures...)

     G
     W           W        W        W 
e:|----------|--------|--------|--------|
B:|----------|--------|--------|--------|
G:|----------|--------|--------|--------|
D:|--5~~~~~--|--(5)~--|--(5)~--|--(5)~--|
A:|--5~~~~~--|--(5)~--|--(5)~--|--(5)~--|
E:|--3~~~~~--|--(3)~--|--(3)~--|--(3)~--|

Guitar 2:

     E E E E E E E E     E E E E E E E E
e:|--3-3-3-3-3-3-3-3--|--2-2-2-2-2-2-2-2--|
B:|--3-3-3-3-3-3-3-3--|--3-3-3-3-3-3-3-3--|
G:|--0-0-0-0-0-0-0-0--|--0-0-0-0-0-0-0-0--|
D:|-------------------|-------------------|
A:|-------------------|-------------------|
E:|-------------------|-------------------|

(cont'd)
     E E E E E E E E     E E E E E E E E
e:|--3-3-3-3-3-3-3-3--|--5-5-5-5-5-5-5-5--|
B:|--3-3-3-3-3-3-3-3--|--3-3-3-3-3-3-3-3--|
G:|--0-0-0-0-0-0-0-0--|--0-0-0-0-0-0-0-0--|
D:|-------------------|-------------------|
A:|-------------------|-------------------|
E:|-------------------|-------------------|

next...

(do this one's below twice...)
Guitar 1:
     G                   Bm
     E E E E E E E E     E E E E E E E E
e:|-------------------|-------------------|
B:|-------------------|-------------------|
G:|-------------------|-------------------|
D:|-------------------|--4-4-4-4-4-4-4-4--|
A:|--5-5-5-5-5-5-5-5--|--2-2-2-2-2-2-2-2--|
E:|--3-3-3-3-3-3-3-3--|-------------------|
     C                    D
     E E E E E E E E      E E E E E E E E
e:|-------------------|--------------------|
B:|-------------------|--------------------|
G:|-------------------|--------------------|
D:|--5-5-5-5-5-5-5-5--|--/7-7-7-7-7-7-7-7--|
A:|--3-3-3-3-3-3-3-3--|--/5-5-5-5-5-5-5-5--|
E:|-------------------|--------------------|

Guitar 2:
     H e    E  E   E       W          H e  E E  E        Q  e  E E E E  E     
e:|-------------------|------------|-----------------|----------------------|
B:|--8~~--h10h12-/15==|==(15)~~-\==|==8~~-10p8-\3~~--|--(3)~~--5-5-3-3-(3)--|
G:|-------------------|------------|-----------------|----------------------|
D:|-------------------|------------|-----------------|----------------------|
A:|-------------------|------------|-----------------|----------------------|
E:|-------------------|------------|-----------------|----------------------|

Guitar 3:
      E  E  E  E  E  E  E  E      E  E  E  E  E  E  E  E
e:|---------------------------|---------------------------|
B:|---------------------------|---------------------------|
G:|--12-12-12-12-12/14/16/19--|--19-19-19-19-19-19-19-19--|
D:|---x--x--x--x--x--x--x--x--|---x--x--x--x--x--x--x--x--|
A:|--10-10-10-10-10/12/14/17--|--17-17-17-17-17-17-17-17--|
E:|---------------------------|---------------------------|

(cont'd)
      E  E  E  E  E  E  E     E E E E E  E  E
e:|------------------------|-------------------|
B:|------------------------|-------------------|
G:|--12-12-12-12-12/14\12--|--7-7-7/9-9/12-12--|
D:|---x--x--x--x--x--x--x--|--x-x-x-x-x--x--x--|
A:|--10-10-10-10-10/12\10--|--5-5-5/7-7/10-10--|
E:|------------------------|-------------------|



[VERSE 1]:

Guitar 1:
     G                   Bm
     E E E E E E E E     E E E E E E E E
e|-------------------|-------------------|
B|-------------------|-------------------|
G|-------------------|-------------------|
D|-------------------|--4-4-4-4-4-4-4-4--|
A|--5-5-5-5-5-5-5-5--|--2-2-2-2-2-2-2-2--|
E|--3-3-3-3-3-3-3-3--|-------------------|
PM  . . . . . . . .     . . . . . . . .
     C                    D
     E E E E E E E E      E E E E E E E E
e|-------------------|--------------------|
B|-------------------|--------------------|
G|-------------------|--------------------|
D|--5-5-5-5-5-5-5-5--|--/7-7-7-7-7-7-7-7--|
A|--3-3-3-3-3-3-3-3--|--/5-5-5-5-5-5-5-5--|
E|-------------------|--------------------|
PM  . . . . . . . .      . . . . . . . .
(2x then)
PM  . . . . . . . .      . . . . . . .  
    E E E E E E E E     E E E E E E E E
e|-------------------|-------------------|
B|-------------------|-------------------|
G|-------------------|-------------------|
D|-------------------|--4-4-4-4-4-4-4-4--|
A|--5-5-5-5-5-5-5-5--|--2-2-2-2-2-2-2-2--|
E|--3-3-3-3-3-3-3-3--|-------------------|
PM  . . . . . . .       . . . . . . .  
    E E E E E E E E      E E E E E E E E
e|-------------------|--------------------|
B|-------------------|--------------------|
G|-------------------|--------------------|
D|--5-5-5-5-5-5-5-5--|--/7-7-7-7-7-7-7-7--|
A|--3-3-3-3-3-3-3-3--|--/5-5-5-5-5-5-5-5--|
E|-------------------|--------------------|
PM  . . . . . . .        . . . . .   . 
    E E E E E E E E     E E E E E E E E
e|-------------------|-------------------|
B|-------------------|-------------------|
G|-------------------|-------------------|
D|-------------------|--4-4-4-4-4-4-4-4--|
A|--5-5-5-5-5-5-5-5--|--2-2-2-2-2-2-2-2--|
E|--3-3-3-3-3-3-3-3--|-------------------|
PM  . . . . . . .       . . . . . . .  
    E E E E E E E E      E E E E E E E E
e|-------------------|--------------------|
B|-------------------|--------------------|
G|-------------------|--------------------|
D|--5-5-5-5-5-5-5-5--|--/7-7-7-7-7-7-7-7--|
A|--3-3-3-3-3-3-3-3--|--/5-5-5-5-5-5-5-5--|
E|-------------------|--------------------|
PM  . . . . . . .        . . . . .   . 


Guitar 2: (distortion off)
    W      W      W      W
e|--3~--|--2~--|--3~--|--2~--|
B|--3~--|--3~--|--3~--|--3~--|
G|--0~--|--4~--|--0~--|--2~--|
D|--0~--|--4~--|--2~--|--0~--|
A|--2~--|--2~--|--3~--|------|
E|--3~--|------|------|------|
    W      W      W      W
e|--3~--|--2~--|--3~--|--2~--|
B|--3~--|--3~--|--3~--|--3~--|
G|--0~--|--4~--|--0~--|--2~--|
D|--0~--|--4~--|--2~--|--0~--|
A|--2~--|--2~--|--3~--|------|
E|--3~--|------|------|------|
    W      W      W      W
e|--3~--|--2~--|--3~--|------|
B|--3~--|--3~--|--3~--|------|
G|--0~--|--4~--|--0~--|------|
D|--0~--|--4~--|--2~--|------|
A|--2~--|--2~--|--3~--|------|
E|--3~--|------|------|------|
   W    W    W    W
e|----|----|----|----|
B|----|----|----|----|
G|----|----|----|----|
D|----|----|----|----|
A|----|----|----|----|
E|----|----|----|----|

--------------------------------------------------||
--------------------------------------------------||

REFRAIN:

Guitar 1:
    Am     G       Am      G       Am      G
    W      W       W       W       W       W
e|------|------|-------|-------|-------|--------|
B|------|------|-------|-------|-------|--------|
G|------|------|-------|-------|-------|--------|
D|--7~--|--5~--|--/7~--|--\5~--|--/7~--|--\5~---|
A|--7~--|--5~--|--/7~--|--\5~--|--/7~--|--\5~---|
E|--5~--|--3~--|--/5~--|--\3~--|--/5~--|--\3~---|
    F                   F                   D                   D (slowly release PM)
    E E E E E E E E     E E E E E E E E     E E E E E E E E     E E E E E E E E
e|-------------------|-------------------|-------------------|-------------------|
B|-------------------|-------------------|-------------------|-------------------|
G|-------------------|-------------------|-------------------|-------------------|
D|-------------------|-------------------|--7-7-7-7-7-7-7-7--|--7-7-7-7-7-7-7-7--|
A|--3-3-3-3-3-3-3-3--|--3-3-3-3-3-3-3-3--|--5-5-5-5-5-5-5-5--|--5-5-5-5-5-5-5-5--|
E|--1-1-1-1-1-1-1-1--|--1-1-1-1-1-1-1-1--|-------------------|-------------------|
PM  . . . . . . . .     . . . . . . . .     . . . . . . . .     . . . . . . . . 

Guitar 2:
(enters on the D chord of Guitar 1)
    E E E E E E E E      E  E  E  E  E  E  E  E
e|-------------------|---------------------------|
B|-------------------|---------------------------|
G|--7-7-7-7/9-9-9-9--|--11-11-11-11/14-14-14-14--|
D|--x-x-x-x-x-x-x-x--|---x--x--x--x--x--x--x--x--|
A|--5-5-5-5/7-7-7-7--|---9--9--9--9/12-12-12-12--|
E|-------------------|---------------------------|

---------------------------------------------------||
---------------------------------------------------||

CHORUS:

Guitar 1 & 2:
    G       D                    Em                  C
    E w     E E E E E E E E      E E E E E E E E     E E E E E E E E
e|-------|-------------------|--------------------|-------------------|
B|-------|-------------------|--------------------|-------------------|
G|-------|--7-7-7-7-7-7-7-7--|--/9-9-9-9-9-9-9-9--|--5-5-5-5-5-5-5-5--|
D|--5----|--7-7-7-7-7-7-7-7--|--/9-9-9-9-9-9-9-9--|--5-5-5-5-5-5-5-5--|
A|--5----|--5-5-5-5-5-5-5-5--|--/7-7-7-7-7-7-7-7--|--3-3-3-3-3-3-3-3--|
E|--3----|-------------------|--------------------|-------------------|
    G                   D                   C       D   C   Bm
    E E E E E E E E     E E E E E E E E     E w     Q e Q e Q 
e|-------------------|-------------------|-------|-------------|
B|-------------------|-------------------|-------|-------------|
G|-------------------|--7-7-7-7-7-7-7-7--|--5----|--7~--5---4--|
D|--5-5-5-5-5-5-5-5--|--7-7-7-7-7-7-7-7--|--5----|--7~--5---4--|
A|--5-5-5-5-5-5-5-5--|--5-5-5-5-5-5-5-5--|--3----|--5~--3---2--|
E|--3-3-3-3-3-3-3-3--|-------------------|-------|-------------|
    G                   D                    Em                  C
    E E E E E E E E     E E E E E E E E      E E E E E E E E     E E E E E E E E
e|-------------------|-------------------|--------------------|-------------------|
B|-------------------|-------------------|--------------------|-------------------|
G|-------------------|--7-7-7-7-7-7-7-7--|--/9-9-9-9-9-9-9-9--|--5-5-5-5-5-5-5-5--|
D|--5-5-5-5-5-5-5-5--|--7-7-7-7-7-7-7-7--|--/9-9-9-9-9-9-9-9--|--5-5-5-5-5-5-5-5--|
A|--5-5-5-5-5-5-5-5--|--5-5-5-5-5-5-5-5--|--/7-7-7-7-7-7-7-7--|--3-3-3-3-3-3-3-3--|
E|--3-3-3-3-3-3-3-3--|-------------------|--------------------|-------------------|
    G                   D                   C       D
    E E E E E E E E     E E E E E E E E     E w     E E E E E E E E 
e|-------------------|-------------------|-------|-------------------|
B|-------------------|-------------------|-------|-------------------|
G|-------------------|--7-7-7-7-7-7-7-7--|--5----|--7-7-7-7-7-7-7-7--|
D|--5-5-5-5-5-5-5-5--|--7-7-7-7-7-7-7-7--|--5----|--7-7-7-7-7-7-7-7--|
A|--5-5-5-5-5-5-5-5--|--5-5-5-5-5-5-5-5--|--3----|--5-5-5-5-5-5-5-5--|
E|--3-3-3-3-3-3-3-3--|-------------------|-------|-------------------|

--------------------------------------------------||
--------------------------------------------------||

INTERLUDE:

Guitar 1:
    G                   Bm
    E E E E E E E E     E E E E E E E E
e|-------------------|-------------------|
B|-------------------|-------------------|
G|-------------------|-------------------|
D|-------------------|--4-4-4-4-4-4-4-4--|
A|--5-5-5-5-5-5-5-5--|--2-2-2-2-2-2-2-2--|
E|--3-3-3-3-3-3-3-3--|-------------------|
    C                    D
    E E E E E E E E      E E E E E E E E
e|-------------------|--------------------|
B|-------------------|--------------------|
G|-------------------|--------------------|
D|--5-5-5-5-5-5-5-5--|--/7-7-7-7-7-7-7-7--|
A|--3-3-3-3-3-3-3-3--|--/5-5-5-5-5-5-5-5--|
E|-------------------|--------------------|

Guitar 2:
    H e    E  E   E       W          H e  E E  E        Q  e  E E E E  E     
e|-------------------|------------|-----------------|----------------------|
B|--8~~--h10h12-/15==|==(15)~~-\==|==8~~-10p8-\3~~--|--(3)~~--5-5-3-3-(3)--|
G|-------------------|------------|-----------------|----------------------|
D|-------------------|------------|-----------------|----------------------|
A|-------------------|------------|-----------------|----------------------|
E|-------------------|------------|-----------------|----------------------|

Guitar 3:
     E  E  E  E  E  E  E  E      E  E  E  E  E  E  E  E
e|---------------------------|---------------------------|
B|---------------------------|---------------------------|
G|--12-12-12-12-12/14/16/19--|--19-19-19-19-19-19-19-19--|
D|---x--x--x--x--x--x--x--x--|---x--x--x--x--x--x--x--x--|
A|--10-10-10-10-10/12/14/17--|--17-17-17-17-17-17-17-17--|
E|---------------------------|---------------------------|
     E  E  E  E  E  E  E     E E E E E  E  E
e|------------------------|-------------------|
B|------------------------|-------------------|
G|--12-12-12-12-12/14\12--|--7-7-7/9-9/12-12--|
D|---x--x--x--x--x--x--x--|--x-x-x-x-x--x--x--|
A|--10-10-10-10-10/12\10--|--5-5-5/7-7/10-10--|
E|------------------------|-------------------|

--------------------------------------------------||
--------------------------------------------------||

VERSE 2: (do same as VERSE 1)

(repeat REFRAIN)

--------------------------------------------------||
--------------------------------------------------||

CHORUS 2: (there are only a few changes... but it's basically the same!)

Guitar 1 & 2:
    G              D                    Em                  C
    E w            E E E E E E E E      E E E E E E E E     E E E E E E E E
e|--------------|-------------------|--------------------|-------------------|
B|--------------|-------------------|--------------------|-------------------|
G|--------------|--7-7-7-7-7-7-7-7--|--/9-9-9-9-9-9-9-9--|--5-5-5-5-5-5-5-5--|
D|--5-----------|--7-7-7-7-7-7-7-7--|--/9-9-9-9-9-9-9-9--|--5-5-5-5-5-5-5-5--|
A|--5-----------|--5-5-5-5-5-5-5-5--|--/7-7-7-7-7-7-7-7--|--3-3-3-3-3-3-3-3--|
E|--3-(3/15\3)--|-------------------|--------------------|-------------------|
    G                   D                   C       D
    E E E E E E E E     E E E E E E E E     E w     E E E E E E E E 
e|-------------------|-------------------|-------|-------------------|
B|-------------------|-------------------|-------|-------------------|
G|-------------------|--7-7-7-7-7-7-7-7--|--5----|--7-7-7-7-7-7-7-7--|
D|--5-5-5-5-5-5-5-5--|--7-7-7-7-7-7-7-7--|--5----|--7-7-7-7-7-7-7-7--|
A|--5-5-5-5-5-5-5-5--|--5-5-5-5-5-5-5-5--|--3----|--5-5-5-5-5-5-5-5--|
E|--3-3-3-3-3-3-3-3--|-------------------|-------|-------------------|
    G                   D                    Em                  C
    E E E E E E E E     E E E E E E E E      E E E E E E E E     E E E E E E E E
e|-------------------|-------------------|--------------------|-------------------|
B|-------------------|-------------------|--------------------|-------------------|
G|-------------------|--7-7-7-7-7-7-7-7--|--/9-9-9-9-9-9-9-9--|--5-5-5-5-5-5-5-5--|
D|--5-5-5-5-5-5-5-5--|--7-7-7-7-7-7-7-7--|--/9-9-9-9-9-9-9-9--|--5-5-5-5-5-5-5-5--|
A|--5-5-5-5-5-5-5-5--|--5-5-5-5-5-5-5-5--|--/7-7-7-7-7-7-7-7--|--3-3-3-3-3-3-3-3--|
E|--3-3-3-3-3-3-3-3--|-------------------|--------------------|-------------------|
    G                   D                   C       D
    E E E E E E E E     E E E E E E E E     E w     E E E E E E E E 
e|-------------------|-------------------|-------|-------------------|
B|-------------------|-------------------|-------|-------------------|
G|-------------------|--7-7-7-7-7-7-7-7--|--5----|--7-7-7-7-7-7-7-7--|
D|--5-5-5-5-5-5-5-5--|--7-7-7-7-7-7-7-7--|--5----|--7-7-7-7-7-7-7-7--|
A|--5-5-5-5-5-5-5-5--|--5-5-5-5-5-5-5-5--|--3----|--5-5-5-5-5-5-5-5--|
E|--3-3-3-3-3-3-3-3--|-------------------|-------|-------------------|

------------------------------------------------||
------------------------------------------------||

SOLO:

Guitar 1:
    G                   D                    Em                  C
    E E E E E E E E     E E E E E E E E      E E E E E E E E     E E E E E E E E
e|-------------------|-------------------|--------------------|-------------------|
B|-------------------|-------------------|--------------------|-------------------|
G|-------------------|--7-7-7-7-7-7-7-7--|--/9-9-9-9-9-9-9-9--|--5-5-5-5-5-5-5-5--|
D|--5-5-5-5-5-5-5-5--|--7-7-7-7-7-7-7-7--|--/9-9-9-9-9-9-9-9--|--5-5-5-5-5-5-5-5--|
A|--5-5-5-5-5-5-5-5--|--5-5-5-5-5-5-5-5--|--/7-7-7-7-7-7-7-7--|--3-3-3-3-3-3-3-3--|
E|--3-3-3-3-3-3-3-3--|-------------------|--------------------|-------------------| 
    G                   D                   C                  C
    E E E E E E E E     E E E E E E E E     E E E E E E E E     E E E E E E E E
e|-------------------|-------------------|-------------------|-------------------|
B|-------------------|-------------------|-------------------|-------------------|
G|-------------------|--7-7-7-7-7-7-7-7--|--5-5-5-5-5-5-5-5--|--5-5-5-5-5-5-5-5--|
D|--5-5-5-5-5-5-5-5--|--7-7-7-7-7-7-7-7--|--5-5-5-5-5-5-5-5--|--5-5-5-5-5-5-5-5--|
A|--5-5-5-5-5-5-5-5--|--5-5-5-5-5-5-5-5--|--3-3-3-3-3-3-3-3--|--3-3-3-3-3-3-3-3--|
E|--3-3-3-3-3-3-3-3--|-------------------|-------------------|-------------------| 
Guitar 2:

    E E E E E E E E     E E E E E E E E    E E E E E E  E  E      E E E E E E E E
e|--------------8-8--|--8-7-7-7---------|--------------10-10--|--10-8-8-8-7-7------|
B|--8-8-8------------|----------8-8-8-8-|--8-8-8--------------|---------------8-8--|
G|--------7-7-7------|------------------|--------7-7-7--------|--------------------|
D|-------------------|------------------|---------------------|--------------------|
A|-------------------|------------------|---------------------|--------------------|
E|-------------------|------------------|---------------------|--------------------|
    E E E E E E E E     E E E E E E E E
e|-------------------|-------------------|
B|--8-8-8-------8-8--|--8-------8-8------|
G|--------7-7-7------|----5-5-5-----5-5--|
D|-------------------|-------------------|
A|-------------------|-------------------|
E|-------------------|-------------------|
    E E E E E E  E  E      E  E  E  E 
e|--7-7-7-8-8-8-10-10--|--10-10-10-10-------------------|
B|---------------------|--------------------------------|
G|---------------------|--------------------------------|
D|---------------------|--------------------------------|
A|---------------------|--------------------------------|
E|---------------------|--------------------------------|

------------------------------------------------||
------------------------------------------------||

(repeat REFRAIN)

------------------------------------------------||
------------------------------------------------||

*Next: Do CHORUS doing plain chords w/o distortion; continuous strumming
G - 320033
D - xx0232
Em- 022033
c - x32033

Chord Pattern:
G - D - Em - C
G - D 
 then - 

Guitar 1:
    E w     E E E E E E  E  E
e|-------|---------------------|
B|-------|---------------------|
G|--5----|--9-9-9-9-9-9/12-12--|
D|--5----|--x-x-x-x-x-x--x--x--|
A|--3----|--7-7-7-7-7-7/10-10--|
E|-------|---------------------|

Guitar 2:
    E E E E E E E E       E  E  E  E  E  E  E  E
e|-------------------|----------------------------|
B|-------------------|----------------------------|
G|--5-5-5s7-7-7s9-9--|--/12-12-12-12-12-12-12-12--|
D|--5-5-5s7-7-7s9-9--|--/12-12-12-12-12-12-12-12--|
A|-------------------|----------------------------|
E|-------------------|----------------------------|

Then Both Guitars

    G                   D                    Em                  C
    E E E E E E E E     E E E E E E E E      E E E E E E E E     E E E E E E E E
e|-------------------|-------------------|--------------------|-------------------|
B|-------------------|-------------------|--------------------|-------------------|
G|-------------------|--7-7-7-7-7-7-7-7--|--/9-9-9-9-9-9-9-9--|--5-5-5-5-5-5-5-5--|
D|--5-5-5-5-5-5-5-5--|--7-7-7-7-7-7-7-7--|--/9-9-9-9-9-9-9-9--|--5-5-5-5-5-5-5-5--|
A|--5-5-5-5-5-5-5-5--|--5-5-5-5-5-5-5-5--|--/7-7-7-7-7-7-7-7--|--3-3-3-3-3-3-3-3--|
E|--3-3-3-3-3-3-3-3--|-------------------|--------------------|-------------------| 
    G                   D                   C                  C
    E E E E E E E E     E E E E E E E E     E E E E E E E E     E E E E E E E E
e|-------------------|-------------------|-------------------|-------------------|
B|-------------------|-------------------|-------------------|-------------------|
G|-------------------|--7-7-7-7-7-7-7-7--|--5-5-5-5-5-5-5-5--|--5-5-5-5-5-5-5-5--|
D|--5-5-5-5-5-5-5-5--|--7-7-7-7-7-7-7-7--|--5-5-5-5-5-5-5-5--|--5-5-5-5-5-5-5-5--|
A|--5-5-5-5-5-5-5-5--|--5-5-5-5-5-5-5-5--|--3-3-3-3-3-3-3-3--|--3-3-3-3-3-3-3-3--|
E|--3-3-3-3-3-3-3-3--|-------------------|-------------------|-------------------|

Guitar 3: Play G - D - Em - C  -  G - D - C clean and in plain chords

-------------------------------------------------||
-------------------------------------------------||

OUTRO: (do this twice to end...)

Guitar 1:
    G                   Bm
    E E E E E E E E     E E E E E E E E
e|-------------------|-------------------|
B|-------------------|-------------------|
G|-------------------|-------------------|
D|-------------------|--4-4-4-4-4-4-4-4--|
A|--5-5-5-5-5-5-5-5--|--2-2-2-2-2-2-2-2--|
E|--3-3-3-3-3-3-3-3--|-------------------|
    C                    D
    E E E E E E E E      E E E E E E E E
e|-------------------|--------------------|
B|-------------------|--------------------|
G|-------------------|--------------------|
D|--5-5-5-5-5-5-5-5--|--/7-7-7-7-7-7-7-7--|
A|--3-3-3-3-3-3-3-3--|--/5-5-5-5-5-5-5-5--|
E|-------------------|--------------------|

Guitar 2:
    H e    E  E   E       W          H e  E E  E        Q  e  E E E E  E     
e|-------------------|------------|-----------------|----------------------|
B|--8~~--h10h12-/15==|==(15)~~-\==|==8~~-10p8-\3~~--|--(3)~~--5-5-3-3-(3)--|
G|-------------------|------------|-----------------|----------------------|
D|-------------------|------------|-----------------|----------------------|
A|-------------------|------------|-----------------|----------------------|
E|-------------------|------------|-----------------|----------------------|

Guitar 3:
     E  E  E  E  E  E  E  E      E  E  E  E  E  E  E  E
e|---------------------------|---------------------------|
B|---------------------------|---------------------------|
G|--12-12-12-12-12/14/16/19--|--19-19-19-19-19-19-19-19--|
D|---x--x--x--x--x--x--x--x--|---x--x--x--x--x--x--x--x--|
A|--10-10-10-10-10/12/14/17--|--17-17-17-17-17-17-17-17--|
E|---------------------------|---------------------------|
     E  E  E  E  E  E  E     E E E E E  E  E
e|------------------------|-------------------|
B|------------------------|-------------------|
G|--12-12-12-12-12/14\12--|--7-7-7/9-9/12-12--|
D|---x--x--x--x--x--x--x--|--x-x-x-x-x--x--x--|
A|--10-10-10-10-10/12\10--|--5-5-5/7-7/10-10--|
E|------------------------|-------------------|

Then -

Both Guitars: (di ko na ilalagay yung Duration Legends...
               tamad na tamad na ako ehh... ^_^)
e|--------------------------------------------------|
B|--------------------------------------------------|
G|-------12-11-7--4-4-----12-11-9--5-5-----12-11-9--|
D|--5-5---x--x-x--4-4--x---x--x-x--5-5--x---x--x-x--|
A|--5-5--10--9-5--2-2--x--10--9-7--3-3--x--10--9-7--|
E|--3-3---------------------------------------------|

Then -
Guitar 1:
e|----------------|
B|----------------|
G|--7-7--9--7-7---|
D|--7-7--9--7-7---|
A|--5-5--7--5-5---|
E|----------------|
Guitar 2:
e|------------------|
B|------------------|
G|--7-7--4-4-4-4-4--|
D|--x-x--x-x-x-x-x--|
A|--5-5--2-2-2-2-2--|
E|------------------|

Then -
Both Guitars:
e|--------------------------------------------------|
B|--------------------------------------------------|
G|-------12-11-7--4-4-----12-11-9--5-5-----12-11-9--|
D|--5-5---x--x-x--4-4--x---x--x-x--5-5--x---x--x-x--|
A|--5-5--10--9-5--2-2--x--10--9-7--3-3--x--10--9-7--|
E|--3-3---------------------------------------------|

Then -
Guitar 1:
e|----------------|
B|----------------|
G|--7-7-----------|
D|--7-7--4--7-7---|
A|--5-5--4--7-7---|
E|-------2--5-5---|
Guitar 2:
e|------------------|
B|------------------|
G|--7-7--4-4-4-4-4--|
D|--x-x--x-x-x-x-x--|
A|--5-5--2-2-2-2-2--|
E|------------------|

END ON: (for both Guitars...)
e|-------|
B|-------|
G|-------|
D|--5-5--|
A|--5-5--|
E|--3-3--|

Whoooh... I'm done... Please Rate my work! 





Comments


Popular Callalily tabs & chords
Farwell Friends Bass Tabs
Para Sayo Chords
Magbalik 2 Tabs
Sanctuary 2 Tabs
Isabel Ukulele
Luha Ukulele
Nagagalit Ukulele
Ooh La La Ukulele
Pasasalamat Ukulele
Song For The Youth Ukulele


Song lyrics



↑ Back to top | Tablatures and chords are parodies/interpretations of the original songs. You may use it for private study, scholarship, research or language learning purposes only
© 2014 AZChords.com Contact us | Privacy policy | DMCA | Add/correct tabs | Request tabs | Top 50 tabs