» » »

Farwell Friends Bass tabs (ver.1)

Artists:  A B C D E F G H I J K L M N O P Q R S T U V W X Y Z # 

Farwell Friends Bass tabs (ver.1)

Callalily
Rating:
0/5 (0 votes)

Hard to play? Try these video lessons and learn fast.
                INTRO:

|-0---------5--2-1-0-|
|---2s4-4h5----------|
|--------------------|
|--------------------|

CHORUS/OTHERS:

|-0-0-000000-----------------------------------|
|------------2-2-222222------------------------|
|------------------------4-4-444444------------|
|-----------------------------------5-5-555555-|

sana mahalin nyo ang kantang ito para to sa mga naiwan sa barkada o nang iwan
            
Hard to play? Try these video lessons and learn fast. | Correct




comments powered by Disqus
↑ Back to top | Tablatures and chords are parodies/interpretations of the original songs. You may use it for private study, scholarship, research or language learning purposes only