» » »

Callalily, Fake Lullabies Tabs (ver.1)

Artists:  A B C D E F G H I J K L M N O P Q R S T U V W X Y Z # 

Fake Lullabies Tabs (ver.1)

Callalily Tabs
Rating:
5/5 (1 vote)
Fake Lullabies lessons Tabs too difficult? Try these video lessons and learn fast
                
For any comments and Suggestion:


        This is the new song of Callalily from their new album      
                              "Fisheye"..
                Kung may mali man,..pakicomment kaagad..tnx!
 
Guitar 1:

Wake up little girl….                         
e------------------------------------------|
b---------------------5------------3-------|
g---5-4-----5-4----5-----2--4----5---------|
D-------5-------5--------------5-----------|
E------------------------------------------|

He can't wait to....
e---------------------------------------------------------------3-----|
b---------13-12------------13-12-------------5--13-12-----------3-----|
g---5-4---------12~--5-4---------12~--5-4---5---------12~--4-5--0-----|
D-------5----------------5--------------------------------------------|
A---------------------------------------------------------------------|
E---------------------------------------------------------------------|

Pre-chorus:

Guitar 2:
Everything is  was imagination.
      F     G     Am7      G
e----111---333-----------3333--|
b----111---333----111----3333--|
g----222---444----222----4444--|
D----333---555----222----5555--|
A----333---555-----------5555--|
E----111---333-----------3333--|

Chorus:

Guitar 1 and Guitar 2:
Cause when we...
e------------------------------------------|
b------------------------------------------|
g----5555----------------------------------|
D----5555---77777---33333----77777---55555-|
A----3333---77777---33333----77777---55555-|
E-----------55555---11111----55555---33333-|

Verse 2:

Clouds are running faster….
e---------------------------------------------------------------3-----|
b---------13-12------------13-12-------------5--13-12-----------3-----|
g---5-4---------12~--5-4---------12~--5-4---5---------12~--4-5--0-----|
D-------5----------------5--------------------------------------------|
A---------------------------------------------------------------------|
E---------------------------------------------------------------------|

Guitar 1:
e---------------------------------------------------------------3-----|
b---------13-12------------13-12-------------5--13-12-----------3-----|
g---5-4---------12~--5-4---------12~--5-4---5---------12~--4-5--0-----|
D-------5----------------5--------------------------------------------|
A---------------------------------------------------------------------|
E---------------------------------------------------------------------|

Guitar 2:

e-------------|
b-------------|
g-----5555----|
D-----5555----|
A-----3333----|
E-------------|

Pre-chorus:

Guitar 2:

Everything is  was imagination.
      F     G     Am7      G
e----111---333-----------3333--|
b----111---333----111----3333--|
g----222---444----222----4444--|
D----333---555----222----5555--|
A----333---555-----------5555--|
E----111---333-----------3333--|

Chorus:
cause when we...
e------------------------------------------|
b------------------------------------------|
g----5555----------------------------------|
D----5555---77777---33333----77777---55555-|
A----3333---77777---33333----77777---55555-|
E-----------55555---11111----55555---33333-|

Then Adlib:

Wake up little girl….                         
e------------------------------------------|
b---------------------5------------3-------|
g---5-4-----5-4----5-----2--4----5---------|
D-------5-------5--------------5-----------|
E------------------------------------------|

Chorus:
cause when we..
e------------------------------------------|
b------------------------------------------|
g----5555----------------------------------|
D----5555---77777---33333----77777---55555-|
A----3333---77777---33333----77777---55555-|
E-----------55555---11111----55555---33333-|

Guitar 2:

e------------------------------------------|
b------------------------------------------|
g------------------------------------------|
D----/-333--222--------333--222------------|
A----------------3333-----------333------4-|
E------------------------------------------|

Then fade

Lyrics:

Wake up little girl.
Daddy’s waiting outside
holding your favorite toy.
His eyes are full of joy,
he can’t wait to see your face.
He’s craving for that warm and sweet embrace.
His body starts to shiver
’cause this is the first time you’ll see each other.

But everything was an imagination;
you were a victim of a fad illusion.
There’s nothing you can do,
there’s nothing you can do.

’cause when we close our eyes
we hear more lies -
fake lullabies
poisoning our minds

Clouds are running faster
as your eyes are getting heavier.
Things are not so bright;
cause the moon won’t shed its light.
Merry’s not around,
I don’t know where to be found
but who knows?
Maybe in a rainbow.

Everything was an imagination;
you were a victim of a fad illusion.
There’s nothing you do,
there’s nothing you can do.

‘Cause when we close our eyes
we hear more lies -
fake lullabies
poisoning our minds.

When we close our eyes
we hear more lies -
fake lullabies
poisoning our minds.

Wake up little girl,
Daddy’s gone forever
but who knows?
Maybe in a rainbow.

‘Cause when we close our eyes,
we hear more lies -
fake lullabies
poisoning our minds.
            

comments powered by Disqus
↑ Back to top | Callalily Tabs for Fake Lullabies. Lyrics for acoustic guitar and electric guitar. Tablatures and chords are parodies/interpretations of the original songs. You may use it for private study, scholarship, research or language learning purposes only