>
 >
Dreams

Dreams Guitar Tabs

Callalily - Dreams chords, tabs, tablatures, lyrics

Guitar lessons | Add/correct | Request | Top 50 tabs Artists:  A B C D E F G H I J K L M N O P Q R S T U V W X Y Z 0-9

Dreams Guitar Tabs – Callalily

CD, Sheet music, Poster

Do you like Dreams? Share with your friends now
ChordsChords v2TabsUkulele
Album:XYZ

For your comments,questions or suggestions,just Post a Comment or PM me.

Gtr.Legends:
h - hammer-on
p - pull-off
^ - pedal-on(clean-wahwah)
/ - slide
x - dead string and scratching
~ - let it ring

Gtr.Tuning:Standard(Normal)

Intro:
Gtr.1
e|-3333--3333--3333--3333---|
B|-3333--3333--3333--3333---|      (Strum only  the eBG string)
G|-0000--2222--2222--0000---| 2x
D|-0000--2222--xxxx--2222---|
A|-2222--0000--2222--3333---|
E|-3333---------------------|

Gtr.2
e|---------------|
B|---------------|
G|-----4h5-4-----| 8x
D|-5h7-------5---|
A|---------------|
E|---------------|

Verse 1:As I walked...
Gtr.1
e|-----------------------|
B|-----------------------|
G|-----------------------| 4x
D|-55---77---99---1010---|
A|-55---77---99---1010---|
E|-33---55---77----8-8---|

Gtr.2
e|-33xx33x3333xx33x33--88-77-3---|
B|-33xx33x3333xx33x33--------3---|
G|-------------------------------| 4x
D|-------------------------------|
A|-------------------------------|
E|-------------------------------|
   ^^^^^^^^^^^^^^^^^^        ^

Chorus 1:Dream,it makes...
Gtr.1
e|-2~-----      -2~--------------|
B|-3~-----      -3~--------------|
G|-4~--5~- 3x   -4~--5555-7777---|
D|-4~--5~- Then -4~--5555-7777---|
A|-2~--3~-      -2~--3333-5555---|
E|--------      -----------------|

Gtr.2
e|------------------|
B|-3~--3p2/5~--3~---|
G|------------------| 4x
D|------------------|
A|------------------|
E|------------------|

Repeat Intro:

Repeat Verse 1:

Repeat Chorus 1:

Verse 3:
Play Verse 1

Chorus 2:Come to me and...
Play Chorus 1

It's time to come...
e|-3~--0~--2~--0~---|
B|-3~--1~--3~--1~---|
G|-0~--2~--4~--0~---| 4x
D|-0~--2~--4~--2~---|
A|-2~--0~--2~--3~---|
E|-3~---------------|

Outro:Repeat Intro

End...

Dream Lyrics:

Verse 1
As i walked along the sky
Of my dream you came alive
And it feels you're made to change
My whole life
And i know you will be there
There for me to make me stare
And it will be always and
Forever in my dreams

Chorus 1:
Dream, it makes me change but not for real
cause i only see you smiling
In my dreams, that's the only time
I make you feel
What i have for you is real

Repeat Verse 1:

Chorus 2:
Come to me and hold me in my dreams
Let me touch you for a while
And dont let me realize that i am dreaming
'cause i'll be missing you,
I'll be missing you...

Verse 2:
As i ran along the sky
Full of dreams, hopes and lies
You just come to make me feel
That we're supposed to be together  2x
And i know you will be there
There for me to make me stare
And it will be always and
Forever in my dreams

Outro:
It's time to come around
It's time to wake up now
It's time to come around...

It's time to come around
It's time to wake up now
It's time to come around...





Comments


Popular Callalily tabs & chords
Magbalik 2 Bass Tabs
Take My Hand Bass Tabs
Pawiin Chords
Insane 1 Tabs
Magbalik 3 Tabs
Magbalik 6 Tabs
Pansamantala Intro 3 Tabs
Star Tabs
Dahilan Ukulele
Minami Kaze Ukulele


Song lyrics



↑ Back to top | Tablatures and chords are parodies/interpretations of the original songs. You may use it for private study, scholarship, research or language learning purposes only
© 2014 AZChords.com Contact us | Privacy policy | DMCA | Add/correct tabs | Request tabs | Top 50 tabs