>
 >
A Starry Night

A Starry Night Guitar Tabs

Callalily - A Starry Night chords, tabs, tablatures, lyrics

Guitar lessons | Add/correct | Request | Top 50 tabs Artists:  A B C D E F G H I J K L M N O P Q R S T U V W X Y Z 0-9

A Starry Night Guitar Tabs – Callalily

CD, Sheet music, Poster

Do you like A Starry Night? Share with your friends now
ChordsChords v2TabsUkulele
this is my first and my last dedication for you, des_ti_ne m c..

Intro:
Guitar 1:   
e|------------------------------|   
B|------------------------------|     
G|--9-9-9--7-7-7--5-5-5-5-5-5---|    
D|--9-9-9--7-7-7--5-5-5-5-5-5---| 4x         
A|--7-7-7--5-5-5--3-3-3-3-3-3---|     
E|------------------------------|

Guitar 2:
e|--------------------------------------|
B|--------------------------------------|
G|--9-9-9--11-11-11--12-12-12-12-12-12--|
D|--x-x-x---x--x--x---x--x--x--x--x--x--| 3x     
A|--7-7-7---9--9--9--10-10-10-10-10-10--|
E|--------------------------------------|

then..
e|--------------------------------------|
B|--------------------------------------|
G|--9-9-9--11-11-11--16-16-16-16-16-16--|
D|--x-x-x---x--x--x---x--x--x--x--x--x--|     
A|--7-7-7---9--9--9--14-14-14-14-14-14--|
E|--------------------------------------|

Verse: a starry night came...
Chords: em7-d-c-c
    em7      d       c       c
e|-3---3-|-2---2-|-0---0-|-0---0-|   
B|-3---3-|-3---3-|-1---1-|-1---1-|     
G|---0---|---2---|---0---|---0---|    
D|-2-----|-0-----|-------|-------| repeat til chorus        
A|-------|-------|-3-----|-3-----|     
E|-------|-------|-------|-------|

Chorus: i am yours you are mine.. i promise
Chords: g-d-em7-c 
     g       d      em7      c2
e|-------|-------|-------|--------|   
B|-----3-|-----3-|-----3-|-----3--|     
G|---0---|---2---|---0---|---0----|    
D|-------|-0-----|-------|--------|  
A|-------|-------|-2-----|-3------|     
E|-3-----|-------|-------|--------|

     g       d       em7       c2
e|-------|--------|-------|--------|   
B|-----3-|------3-|-----3-|------3-|     
G|---0---|----2---|---0---|----0---|    
D|-------|--0-----|-------|--2-----|    
A|-------|-0------|-2-----|-3------|     
E|-3-----|--------|-------|--------|


     g       d       em7       c2
e|-------|--------|-------|--------|   
B|-----3-|------3-|-----3-|------3-|     
G|---0---|----2---|---0---|----0---|    
D|-------|--0-----|-------|--2-----|    
A|-------|--------|-2-----|-3------|     
E|-3-----|--------|-------|--------|

     g       d      em7      c2
e|-------|-------|--------|-------|   
B|-----3-|-----3-|------3-|-----3-|     
G|---0---|---2---|----0---|---0---|    
D|-------|-0-----|--2-----|-------|  
A|-------|-------|-2------|-3-----|     
E|-3-----|-------|--------|-------|

Verse: i thought it'll be forever.. now my dreams can't come true..
    em7      d       c          c
e|---3---|---2---|---0----|---0----|               
B|-----2-|-----3-|-----1--|-----1--|                  
G|-------|-------|--------|--------|                 
D|-2-----|-0-----|--------|--------|       
A|-------|-------|-3------|-3------|                  
E|-------|-------|--------|--------| 

   em7       d        c        c
e|---3---|---5---|---7----|---7----|               
B|-----2-|-----3-|--------|--------|                  
G|-------|-------|--------|--------|                 
D|-2-----|-0-----|-----5--|-----5--|      
A|-------|-------|-3------|-3------|                  
E|-------|-------|--------|--------|

    em7      d       c         c
e|---3---|---2---|---0----|---0----|               
B|-----2-|-----3-|-----1--|-----1--|                  
G|-------|-------|--------|--------|                 
D|-2-----|-0-----|--------|--------|       
A|-------|-------|-3------|-3------|                  
E|-------|-------|--------|--------|
 
then..

    em7      d       c         c
e|---3---|---2---|---0----|----------|               
B|-----2-|-----3-|-----1--|----------|                  
G|-------|-------|--------|-55555555-|                 
D|-2-----|-0-----|--------|-55555555-|        
A|-------|-------|-3------|-33333333-|                  
E|-------|-------|--------|----------|               
                            ******** (pm)                      

Chorus: i am yours you are mine.. i promise..
     g      d      e      c
e|------------------------------|   
B|------------------------------|     
G|--------7-7-7--9-9-9--5-5-5---|    
D|-5-5-5--7-7-7--9-9-9--5-5-5---|          
A|-5-5-5--5-5-5--7-7-7--3-3-3---|     
E|-3-3-3------------------------|
     
     g      d         c
e|---------------------------|   
B|---------------------------|     
G|--------7-7-7--5-5-5-5-5-5-|    
D|-5-5-5--7-7-7--5-5-5-5-5-5-|   (repeat till chorus finishes)       
A|-5-5-5--5-5-5--3-3-3-3-3-3-|     
E|-3-3-3---------------------|

(repeat intro)

Bridge: no one can..
Guitar 1:
chords: e-d-c (repeat til chorus)

Guitar 2 fill in here
e|------------------------|   
B|------------------------|     
G|--1616161616161616////--|    
D|------------------------|          
A|------------------------|     
E|------------------------|

then chorus enters..

Chorus: i am yours you are mine.. i promise..
     g      d      e      c
e|------------------------------|   
B|------------------------------|     
G|--------7-7-7--9-9-9--5-5-5---|    
D|-5-5-5--7-7-7--9-9-9--5-5-5---|          
A|-5-5-5--5-5-5--7-7-7--3-3-3---|     
E|-3-3-3------------------------|
     
     g      d         c
e|---------------------------|   
B|---------------------------|     
G|--------7-7-7--5-5-5-5-5-5-|    
D|-5-5-5--7-7-7--5-5-5-5-5-5-|  (repeat till fade)        
A|-5-5-5--5-5-5--3-3-3-3-3-3-|     
E|-3-3-3---------------------|


bye des_ti_ne m c..





Comments


Popular Callalily tabs & chords
Magbalik 3 Bass Tabs
Insane Chords
Isabel Chords
Magbalik 3 Chords
Take My Hand Chords
Take My Hand 1 Chords
Yakap 2 Tabs
Magbalik Ukulele
Minsan Ukulele
Nagagalit Ukulele


Song lyrics



↑ Back to top | Tablatures and chords are parodies/interpretations of the original songs. You may use it for private study, scholarship, research or language learning purposes only
© 2014 AZChords.com Contact us | Privacy policy | DMCA | Add/correct tabs | Request tabs | Top 50 tabs