» » »

California Guitar Trio, Train To Lamy Tabs (ver.1)

Artists:  A B C D E F G H I J K L M N O P Q R S T U V W X Y Z # 

Train To Lamy Tabs (ver.1)

California Guitar Trio Tabs
 Rating:
3.4/5 (5 votes)
Train To Lamy lessons Tabs too difficult? Try these video lessons and learn fast
1
                "(Part4)
 
   "TRAIN TO LAMY, part 4" by California Guitar Trio
   
    from "Invitation" (1995)


transcripted by: Marek Kuzajewski

It`s not a full and excellent transcription.
This is only working version (sketch) without third guitar and chords.
You can also start with Bb note (instead of B) and you`ll have
the beginning of "Train to Lamy, part 5" 

Two guitars with standard tuning:P


guitar 1
E|------16----------14---------13-------11--------9----------------|
B|-12/13--13---12\11--11---10\9--9---8\7--7------------------------|
G|--------------------------------------------9/10----9-8----------|
D|--------------------------------------------------------11-11----|
A|-----------------------------------------------------------------|
E|-----------------------------------------------------------------|

guitar 2
E|-----------------------------------------------------------------|
B|-----------------------------------------------------------------|
G|------------------------------------------------1--3--6--3--1----|
D|----------------------------------------------3---------------3--|
A|--------------------------------------------4--------------------|
E|-----------------------------------------------------------------|

guitar 1
E|------15---------13----------11----------9--------8--------------|
B|-------------------------------------------------------3-2-------|
G|-14/15--15--14\13--13---11/12--12---11\10-10---9\8-8-------4/5---|
D|---------------------------------------------------------------6-|
A|-----------------------------------------------------------------|
E|-----------------------------------------------------------------|

guitar 2
E|-----------------------------------------------------------------|
B|-----------------------4-----------------------------------------|
G|-------------3----5---------5----3---------------1-------1-------|
D|-------5-------------------------------5-----------3-1-3---3-1-3-|
A|-6---------------------------------------------------------------|
E|-----------------------------------------------------------------|

guitar 1
E|------20---------18----------16----------14---------13-----------|
B|-15/16--16--15\14--14---12/13--13---12\11--11----------8-7-5-6---|
G|-----------------------------------------------13/14-----------6-|
D|-----------------------------------------------------------------|
A|-----------------------------------------------------------------|
E|-----------------------------------------------------------------|

guitar 2
E|-----------------------------------------------------------------|
B|-----------------------------------------------------------------|
G|-----------------------1-----------------------------1-3-6-3-1---|
D|-------------1----3---------3-----1----------------3-----------3-|
A|-------3--------------------------------3--------4---------------|
E|-4---------------------------------------------------------------|

guitar 1
E|------11-----------9---------8--------6--------4--|
B|--------------------------------------------------|
G|-11/12--12---11\10--10---9\8--8---7\6--6---4/5----|
D|--------------------------------------------------|
A|--------------------------------------------------|
E|--------------------------------------------------|

guitar 2
E|--------------------------------------------------|
B|----------------------------4---------------------|
G|---------------3------5-----------5-----3---------|
D|--------5--------------------------------------5--|
A|-6------------------------------------------------|
E|--------------------------------------------------|
"            
Submit corrections

comments powered by Disqus
↑ Back to top | California Guitar Trio Tabs for Train To Lamy. Lyrics for acoustic guitar and electric guitar. 1 Tablatures and chords are parodies/interpretations of the original songs. You may use it for private study, scholarship, research or language learning purposes only