>
 >
Pipeline

Pipeline Guitar Tabs

California Guitar Trio - Pipeline chords, tabs, tablatures, lyrics

Guitar lessons | Add/correct | Request | Top 50 tabs Artists:  A B C D E F G H I J K L M N O P Q R S T U V W X Y Z 0-9

Pipeline Guitar Tabs – California Guitar Trio

CD, Sheet music, Poster

Do you like Pipeline? Share with your friends now
Tabs
 "PIPELINE" (Spickard-Carman)
    by California Guitar Trio 
     
       from: "Yamansahi Blues" (1993)



  
transcripted by: Marek Kuzajewski 
                 

*************************************************************************

THREE GUITARS with STANDARD TUNING!
 







guitar 1
E|--------------------------|--------------------------|--------------------------|
B|--------------------------|--------------------------|--------------------------|
G|--------------------------|--------------------------|--------------------------|
D|--------------------------|--------------------------|--------------------------|
A|--------------------------|--------------------------|--------------------------|
E|-18/15/12/11/10/8/5/3/2/0-|--------------------------|--------------------------|

guitar 2
E|--------------------------|-0------------------------|-0------------------------|
B|--------------------------|--0-----------------------|--0-----------------------|
G|--------------------------|---0----------------------|---0----------------------|
D|--------------------------|----2---------------------|----2---------------------|
A|--------------------------|-----2--------------------|-----2--------------------|
E|--------------------------|------0-------------------|------0-------------------|

guitar 3
E|--------------------------|--------------------------|--------------------------|
B|--------------------------|--------------------------|--------------------------|
G|--------------------------|--------------------------|--------------------------|
D|--------------------------|--------------------------|--------------------------|
A|--------------------------|---2--2--2--2--2--2--2--2-|---2--2--2--2--2--2--2--2-|
E|--------------------------|-0--3--0--3--0--3--0--3---|-0--3--0--3--0--3--0--3---|



guitar 1
E|------------------------|-------------------------|-------------------------|-------------------------|
B|------------------------|-------------------------|-------------------------|-------------------------|
G|------------------------|-------------------------|----------4-------4---4--|-------------------------|
D|----------4-------4---4-|-------------------------|--5-7-5-7---7-5-7---7----|-7-5-7-5-----------------|
A|--5-7-5-7---7-5-7---7---|-7-5-7-5-----------------|7------------------------|---------7---------------|
E|7-----------------------|---------7---------------|-------------------------|-------------------------|

guitar 2
E|------------------------|------------------7------|-------------------------|-----------------12------|
B|------------------------|----------------8---10-8-|-------------------------|---------------13--15-13-|
G|------------------------|--------------9----------|-------------------------|-------------14----------|
D|------------------------|------------9------------|-------------------------|-----------14------------|
A|------------------------|-------------------------|-------------------------|-------------------------|
E|------------------------|-------------------------|-------------------------|-------------------------|

guitar 3
E|------------------------|-------------------------|-------------------------|-------------------------|
B|------------------------|-------------------------|-------------------------|-------------------------|
G|------------------------|-------------------------|-------------------------|-------------------------|
D|------------------------|-------------------------|---2--2--2--2--2--2--2--2|--2--2--2--2--2--2--2--2-|
A|--2--2--2--2--2--2--2--2|---2--2--2--2--2--2--2--2|-0--3--0--3--0--3--0--3--|0--3--0--3--0--3--0--3---|
E|0--3--0--3--0--3--0--3--|-0--3--0--3--0--3--0--3--|-------------------------|-------------------------|




guitar 1
E|----------------------------|----------------------------|-------------------------|-------------|
B|----------------------------|----------------------------|-------------------------|-------------|
G|4--4-4--4-4-4-5--5-5--5-5-5-|4--4-4--4-4-4-5--5-5--5-5-5-|-4-2-4-2-4-2-4-2-4-2-4-2-|-2-0-2-0-2-0-|
D|4--4-4--4-4-4-5--5-5--5-5-5-|4--4-4--4-4-4-5--5-5--5-5-5-|-4-2-4-2-4-2-4-2-4-2-4-2-|-2-0-2-0-2-0-|
A|2--2-2--2-2-2-3--3-3--3-3-3-|2--2-2--2-2-2-3--3-3--3-3-3-|-2-0-2-0-2-0-2-0-2-0-2-0-|-0-0-0-0-0-0-|
E|----------------------------|----------------------------|-------------------------|-------------|

guitar 2
E|----------------------------|--------------6-~~----------|-7~~---------7~~---------|-5~~---------|
B|----------------------------|--------------0-~~----------|-7~~---------7~~---------|-5~~---------|
G|-4~~----------5~~-----------|-4~~----------5-~~----------|-4~~---------4~~---------|-0~~---------|
D|-4~~----------5~~-----------|-4~~----------5-~~----------|-4~~---------4~~---------|-7~~---------|
A|-2~~----------3~~-----------|-2~~----------3-~~----------|-0~~---------0~~---------|-0~~---------|
E|----------------------------|-------------(0)~~----------|-------------------------|-------------|

guitar 3
E|----------------------------|----------------------------|-------------------------|-------------|
B|----------------------------|----------------------------|-------------------------|-------------|
G|----------------------------|----------------------------|-------------------------|-------------|
D|----------------------------|----------------------------|-------------------------|-------------|
A|----------------------------|----------------------------|-------------------------|-------------|
E|7--7-7--7-7-7-8--8-8--8-8-8-|7--7-7--7-7-7-8--8-8--8-8-8-|-7-5-7-5-7-5-7-5-7-5-7-5-|-5-3-5-3-5-3-|



guitar 1
E|--------------------------|--------------------------|--------------------------|
B|--------------------------|--------------------------|--------------------------|
G|--------------------------|--------------------------|--------------------------|
D|--------------------------|--------------------------|--------------------------|
A|--------------------------|--------------------------|--------------------------|
E|-18/15/12/11/10/8/5/3/2/0-|--------------------------|--------------------------|

guitar 2
E|--------------------------|-0------------------------|-0------------------------|
B|--------------------------|--0-----------------------|--0-----------------------|
G|--------------------------|---0----------------------|---0----------------------|
D|--------------------------|----2---------------------|----2---------------------|
A|--------------------------|-----2--------------------|-----2--------------------|
E|--------------------------|------0-------------------|------0-------------------|

guitar 3
E|--------------------------|--------------------------|--------------------------|
B|--------------------------|--------------------------|--------------------------|
G|--------------------------|--------------------------|--------------------------|
D|--------------------------|--------------------------|--------------------------|
A|--------------------------|---2--2--2--2--2--2--2--2-|---2--2--2--2--2--2--2--2-|
E|--------------------------|-0--3--0--3--0--3--0--3---|-0--3--0--3--0--3--0--3---|



guitar 1
E|------------------------|-------------------------|-------------------------|-------------------------|
B|------------------------|-------------------------|-------------------------|-------------------------|
G|------------------------|-------------------------|----------4-------4---4--|-------------------------|
D|----------4-------4---4-|-------------------------|--5-7-5-7---7-5-7---7----|-7-5-7-5-----------------|
A|--5-7-5-7---7-5-7---7---|-7-5-7-5-----------------|7------------------------|---------7---------------|
E|7-----------------------|---------7---------------|-------------------------|-------------------------|

guitar 2
E|------------------------|------------------7------|-------------------------|-----------------12------|
B|------------------------|----------------8---10-8-|-------------------------|---------------13--15-13-|
G|------------------------|--------------9----------|-------------------------|-------------14----------|
D|------------------------|------------9------------|-------------------------|-----------14------------|
A|------------------------|-------------------------|-------------------------|-------------------------|
E|------------------------|-------------------------|-------------------------|-------------------------|

guitar 3
E|------------------------|-------------------------|-------------------------|-------------------------|
B|------------------------|-------------------------|-------------------------|-------------------------|
G|------------------------|-------------------------|-------------------------|-------------------------|
D|------------------------|-------------------------|---2--2--2--2--2--2--2--2|--2--2--2--2--2--2--2--2-|
A|--2--2--2--2--2--2--2--2|---2--2--2--2--2--2--2--2|-0--3--0--3--0--3--0--3--|0--3--0--3--0--3--0--3---|
E|0--3--0--3--0--3--0--3--|-0--3--0--3--0--3--0--3--|-------------------------|-------------------------|



guitar 1
E|----------------------------|----------------------------|-------------------------|
B|----------------------------|----------------------------|-------------------------|
G|4--4-4--4-4-4-5--5-5--5-5-5-|4--4-4--4-4-4-5--5-5--5-5-5-|-4-2-4-2-4-2-4-2-4-2-4-2-|
D|4--4-4--4-4-4-5--5-5--5-5-5-|4--4-4--4-4-4-5--5-5--5-5-5-|-4-2-4-2-4-2-4-2-4-2-4-2-|
A|2--2-2--2-2-2-3--3-3--3-3-3-|2--2-2--2-2-2-3--3-3--3-3-3-|-2-0-2-0-2-0-2-0-2-0-2-0-|
E|----------------------------|----------------------------|-------------------------|

guitar 2
E|----------------------------|--------------6-~~----------|-7~~---------7~~---------|
B|----------------------------|--------------0-~~----------|-7~~---------7~~---------|
G|-4~~----------5~~-----------|-4~~----------5-~~----------|-4~~---------4~~---------|
D|-4~~----------5~~-----------|-4~~----------5-~~----------|-4~~---------4~~---------|
A|-2~~----------3~~-----------|-2~~----------3-~~----------|-0~~---------0~~---------|
E|----------------------------|-------------(0)~~----------|-------------------------|

guitar 3
E|----------------------------|----------------------------|-------------------------|
B|----------------------------|----------------------------|-------------------------|
G|----------------------------|----------------------------|-------------------------|
D|----------------------------|----------------------------|-------------------------|
A|----------------------------|----------------------------|-------------------------|
E|7--7-7--7-7-7-8--8-8--8-8-8-|7--7-7--7-7-7-8--8-8--8-8-8-|-7-5-7-5-7-5-7-5-7-5-7-5-|



guitar 1
E|-----------------------|-----------------------|------------------------|------------------------|
B|---------------5-------|--------------3--------|--------------1---------|---------------3--------|
G|-5-----------5---7--5--|-4----------4---5-4----|-2----------2---4-2-----|-4-----------4----5--4--|
D|---7-7--7-7------------|---5-5--5-5------------|---3-3--3-3-------------|---5-5--5--5------------|
A|-----------------------|-----------------------|------------------------|------------------------|
E|-----------------------|-----------------------|------------------------|------------------------|

guitar 2
E|-----------------------|-----------------------|------------------------|----------------13-12---|
B|-----------------------|-----------------------|------------------------|--------12-12-15-----15-|
G|-----------------------|-----------------------|------------------------|------------------------|
D|-----------------------|-----------------------|------------------------|------------------------|
A|-----------------------|-----------------------|------------------------|------------------------|
E|-----------------------|-----------------------|------------------------|------------------------|

guitar 3
E|-----------------------|-----------------------|------------------------|------------------------|
B|-----------------------|-----------------------|------------------------|------------------------|
G|-----------------------|-----------------------|------------------------|------------------------|
D|-----------------------|-----------------------|------------------------|------------------------|
A|-----------------------|-----------------------|------------------------|------------------------|
E|-5-5-5-5-5-5-5-5-5-5-5-|-3-3-3-3-3-3-3-3-3-3-3-|-1-1-1-1-1-1-1-1-1-1-1-1|-3-3-3-3-3-3-3-3-3-3-3-3|



guitar 1
E|-----------------------|-----------------------|------------------------|-0~~----------|
B|---------------5-------|--------------3--------|--------------1---------|-0~~----------|
G|-5-----------5---7--5--|-4----------4---5-4----|-2----------2---4-2-----|-1~~----------|
D|---7-7--7-7------------|---5-5--5-5------------|---3-3--3-3-------------|-2~~----------|
A|-----------------------|-----------------------|------------------------|-2~~----------|
E|-----------------------|-----------------------|------------------------|-0~~----------|

guitar 2
E|12---------12-15-13-12-|10---------10-13-12-10-|---------------12-10----|--------------|
B|--1313-1313------------|--1212-1212------------|13-1010-1010-13-----13--|-12~~---------|
G|-----------------------|-----------------------|------------------------|--------------|
D|-----------------------|-----------------------|------------------------|--------------|
A|-----------------------|-----------------------|------------------------|--------------|
E|-----------------------|-----------------------|------------------------|--------------|

guitar 3
E|-----------------------|-----------------------|------------------------|-0~~----------|
B|-----------------------|-----------------------|------------------------|-0~~----------|
G|-----------------------|-----------------------|------------------------|-1~~----------|
D|-----------------------|-----------------------|------------------------|-2~~----------|
A|-----------------------|-----------------------|------------------------|-2~~----------|
E|-5-5-5-5-5-5-5-5-5-5-5-|-3-3-3-3-3-3-3-3-3-3-3-|-1-1-1-1-1-1-1-1-1-1-1-1|-0~~----------|



guitar 1
E|--------------------------|--------------------------|--------------------------|
B|--------------------------|--------------------------|--------------------------|
G|--------------------------|--------------------------|--------------------------|
D|--------------------------|--------------------------|--------------------------|
A|--------------------------|--------------------------|--------------------------|
E|-18/15/12/11/10/8/5/3/2/0-|--------------------------|--------------------------|

guitar 2
E|--------------------------|-0------------------------|-0------------------------|
B|--------------------------|--0-----------------------|--0-----------------------|
G|--------------------------|---0----------------------|---0----------------------|
D|--------------------------|----2---------------------|----2---------------------|
A|--------------------------|-----2--------------------|-----2--------------------|
E|--------------------------|------0-------------------|------0-------------------|

guitar 3
E|--------------------------|--------------------------|--------------------------|
B|--------------------------|--------------------------|--------------------------|
G|--------------------------|--------------------------|--------------------------|
D|--------------------------|--------------------------|--------------------------|
A|--------------------------|---2--2--2--2--2--2--2--2-|---2--2--2--2--2--2--2--2-|
E|--------------------------|-0--3--0--3--0--3--0--3---|-0--3--0--3--0--3--0--3---|



guitar 1
E|------------------------|-------------------------|-------------------------|-------------------------|
B|------------------------|-------------------------|-------------------------|-------------------------|
G|------------------------|-------------------------|----------4-------4---4--|-------------------------|
D|----------4-------4---4-|-------------------------|--5-7-5-7---7-5-7---7----|-7-5-7-5-----------------|
A|--5-7-5-7---7-5-7---7---|-7-5-7-5-----------------|7------------------------|---------7---------------|
E|7-----------------------|---------7---------------|-------------------------|-------------------------|

guitar 2
E|------------------------|------------------7------|-------------------------|-----------------12------|
B|------------------------|----------------8---10-8-|-------------------------|---------------13--15-13-|
G|------------------------|--------------9----------|-------------------------|-------------14----------|
D|------------------------|------------9------------|-------------------------|-----------14------------|
A|------------------------|-------------------------|-------------------------|-------------------------|
E|------------------------|-------------------------|-------------------------|-------------------------|

guitar 3
E|------------------------|-------------------------|-------------------------|-------------------------|
B|------------------------|-------------------------|-------------------------|-------------------------|
G|------------------------|-------------------------|-------------------------|-------------------------|
D|------------------------|-------------------------|---2--2--2--2--2--2--2--2|--2--2--2--2--2--2--2--2-|
A|--2--2--2--2--2--2--2--2|---2--2--2--2--2--2--2--2|-0--3--0--3--0--3--0--3--|0--3--0--3--0--3--0--3---|
E|0--3--0--3--0--3--0--3--|-0--3--0--3--0--3--0--3--|-------------------------|-------------------------|




guitar 1
E|----------------------------|----------------------------|-------------------------|-------------|
B|----------------------------|----------------------------|-------------------------|-------------|
G|4--4-4--4-4-4-5--5-5--5-5-5-|4--4-4--4-4-4-5--5-5--5-5-5-|-4-2-4-2-4-2-4-2-4-2-4-2-|-2-0-2-0-2-0-|
D|4--4-4--4-4-4-5--5-5--5-5-5-|4--4-4--4-4-4-5--5-5--5-5-5-|-4-2-4-2-4-2-4-2-4-2-4-2-|-2-0-2-0-2-0-|
A|2--2-2--2-2-2-3--3-3--3-3-3-|2--2-2--2-2-2-3--3-3--3-3-3-|-2-0-2-0-2-0-2-0-2-0-2-0-|-0-0-0-0-0-0-|
E|----------------------------|----------------------------|-------------------------|-------------|

guitar 2
E|----------------------------|--------------6-~~----------|-7~~---------7~~---------|-5~~---------|
B|----------------------------|--------------0-~~----------|-7~~---------7~~---------|-5~~---------|
G|-4~~----------5~~-----------|-4~~----------5-~~----------|-4~~---------4~~---------|-0~~---------|
D|-4~~----------5~~-----------|-4~~----------5-~~----------|-4~~---------4~~---------|-7~~---------|
A|-2~~----------3~~-----------|-2~~----------3-~~----------|-0~~---------0~~---------|-0~~---------|
E|----------------------------|-------------(0)~~----------|-------------------------|-------------|

guitar 3
E|----------------------------|----------------------------|-------------------------|-------------|
B|----------------------------|----------------------------|-------------------------|-------------|
G|----------------------------|----------------------------|-------------------------|-------------|
D|----------------------------|----------------------------|-------------------------|-------------|
A|----------------------------|----------------------------|-------------------------|-------------|
E|7--7-7--7-7-7-8--8-8--8-8-8-|7--7-7--7-7-7-8--8-8--8-8-8-|-7-5-7-5-7-5-7-5-7-5-7-5-|-5-3-5-3-5-3-|



guitar 1
E|--------------------------|--------------------------|
B|--------------------------|--------------------------|
G|--------------------------|--------------------------|
D|--------------------------|--------------------------|
A|--------------------------|--------------------------|
E|-18/15/12/11/10/8/5/3/2/0-|--------------------------|

guitar 2
E|--------------------------|-0------------------------|
B|--------------------------|--0-----------------------|
G|--------------------------|---0----------------------|
D|--------------------------|----2---------------------|
A|--------------------------|-----2--------------------|
E|--------------------------|------0-------------------|

guitar 3
E|--------------------------|----------------0~~-------|
B|--------------------------|--------------0~~---------|
G|--------------------------|------------0~~-----------|
D|--------------------------|----------2~~-------------|
A|--------------------------|--------2~~---------------|
E|--------------------------|------0~~-----------------|





Comments


Popular California Guitar Trio tabs & chords
Bohemian Rhapsody Tabs
Marsh Intro Tabs
Prelude In C Minor Tabs
Train To Lamy Part 4 Tabs


Song lyrics



↑ Back to top | Tablatures and chords are parodies/interpretations of the original songs. You may use it for private study, scholarship, research or language learning purposes only
© 2014 AZChords.com Contact us | Privacy policy | DMCA | Add/correct tabs | Request tabs | Top 50 tabs