» » »

California Guitar Trio, Marsh Tabs (ver.1)

Artists:  A B C D E F G H I J K L M N O P Q R S T U V W X Y Z # 

Marsh Tabs (ver.1)

California Guitar Trio Tabs
Rating:
1/5 (1 vote)
Marsh lessons Tabs too difficult? Try these video lessons and learn fast
                (Intro)
 "THE MARSH" by California Guitar Trio
  from : Whitewater" 


hey, it`s only intro yet but i`ll try to add whole song
when it`ll be ready :D

and remember: STANDARD TUNING for this transcription!

figured out by : Marek Kuzajewski





INTRO:

e|------3-------3-|------2-------2---|-------0-------0---|-------0-------0--|
B|--3-------3-----|--3-------3-----3-|---3-------3-------|---1-------1-----1|
G|----4-------4---|------------------|-----0-------0---2-|------------------|
D|5-------5-------|----4-------4-----|-------------------|-----0-------0----|
A|----------------|2-------2---------|-3-------3---------|-0-------0--------|
E|----------------|------------------|-------------------|------------------|

e|-----------------0-|-------2-------3-2-|-------0-------0---|
B|-------------------|---3-------3-------|---3-------3-------|
G|-------4-------4---|-------------------|-----0-------0---2-|
D|-----5-------5-----|-----4-------4-----|-------------------|
A|---2-------2-------|-2-------2---------|-3-------3---------|
E|-0-------0---------|-------------------|-------------------|

e|-------0-------0---|-----------------0-|
B|---1-------1-----1-|-------------------|
G|-------------------|-------4-------4---|
D|-----0-------0-----|-----5-------5-----| ...
A|-0-------0---------|---2-------2-------|
E|-------------------|-0-------0---------|


now, that`s all.. i hope the rest will be soon..;>
            
Submit corrections

comments powered by Disqus
↑ Back to top | California Guitar Trio Tabs for Marsh. Lyrics for acoustic guitar and electric guitar. Tablatures and chords are parodies/interpretations of the original songs. You may use it for private study, scholarship, research or language learning purposes only