» » »

Bottles Bones Shade Sympathy Tabs (ver.1)

Artists:  A B C D E F G H I J K L M N O P Q R S T U V W X Y Z # 

Bottles Bones Shade Sympathy Tabs (ver.1)

Califone
Rating:
2/5 (2 votes)

Hard to play? Try these video lessons and learn fast.
                This took a long time to make and its a sick song. Listen to the song to get the strum 
for the verse down.Pretty simple all in all. Enjoy!

--INTRO--
E-----------------------------0-0-0-0---|
A-4-------------4-------------2-2-2-2---|
D-----4---2h4-------4---2h4-------------|
G---------------------------------------|
B---------------------------------------|
E---------------------------------------|

E-----------------------------0-0-0-----|
A-4-------------4-------------2-2-2-----|
D-----4---2h4-------4---2h4-------2-----|
G---------------------------------1-----|
B-----------------------------------0---|
E-----------------------------------0---|
--VERSE 1
B, F#, Emaj, B, F#, Emaj

Emaj (only hit top 2 B and E strings at the end of each line)
Nervous John, rescues all the whores,
Bleeding nose and all, taste of metal,
When you’re hit straight on, frozen dimes and throwing flashes,
Clouds of angels liquored pink and underage…

--CHORUS 1
B						    F#		Emaj
Steal your sweet decline, this is the longest goodbye

--VERSE 2
Emaj (same as first verse)
Loose breaks on, a one eyed continental,
Engine willing, interior stained,
China rattles wish, the cold pacific shallows
Spells and fits resurrected,
Calls you in, Calls you in

--CHORUS 2
B						    F#		Emaj
Steal your sweet decline, this is the longest goodbye
B
Aching to get your pocket, picked
F#					 Emaj
Bottles and bones shade and sympathy
B
Kick the glass out of your path
  F#					  Emaj
Calls you in, calls you in, it calls you in

--Outro
E----------------------------------0-| (let ring)
A-4----------------------------------|
D-----4-2----------------------------|
G------------------------------------|
B------------------------------------|
E------------------------------------|
Traps for your fingers…
(See tablature above)
Traps for your fingers
(Same as above)
Fire for your mouth
A (played as power chord on 5th fret E string)
Stones for your passage
C# (power 4th fret A string)
Brass for your jaded
B					   A (power) G			Emaj
Underneath the baking clouds and hardening starless skies

--OUTRO FINAL
Emaj
Lick your collarbone clean
the cold pacific shallows
Spells and fits resurrected,
Calls you in, Calls you in
B						    F#		Emaj
Steal your sweet decline, this is the longest goodbye
B
Aching to get your pocket, picked
F#					 Emaj
Bottles and bones shade and sympathy
B
Kick the glass out of your path
  F#					  Emaj
Calls you in, calls you in, it calls you in

B			F#			Emaj
            
Hard to play? Try these video lessons and learn fast. | Correct




comments powered by Disqus
↑ Back to top | Tablatures and chords are parodies/interpretations of the original songs. You may use it for private study, scholarship, research or language learning purposes only