>
 >
Why Cant I Be On Mtv

Why Cant I Be On Mtv Bass Tabs

Calibretto 13 - Why Cant I Be On Mtv chords, tabs, tablatures, lyrics

Guitar lessons | Add/correct | Request | Top 50 tabs Artists:  A B C D E F G H I J K L M N O P Q R S T U V W X Y Z 0-9

Why Cant I Be On Mtv Bass Tabs – Calibretto 13

CD, Sheet music, Poster

Do you like Why Cant I Be On Mtv? Share with your friends now
Bass TabsUkulele
Tuning: GDAE


|----------------|
 1e+a2e+a3e+a4e+a 

Intro:
                         B
G|----------------|     |----------------|
D|----------------|     |----------------|
A|----------------|     |----------2-2-2-|
E|----------------| x7  |----------------|
  1e+a2e+a3e+a4e+a       1e+a2e+a3e+a4e+a 
 

Chorus Ver 1:
  E                A                E                B 
G|----------------|----------------|----------------|----------------|
D|----------------|----------------|2-2-2-2-2-2-2-2-|--0---0---0-2-0-|
A|----------------|0-0-0-0-0-0-0-0-|----------------|2---2---2-------|
E|0-0-0-0-0-0-0-0-|----------------|----------------|----------------|
  1e+a2e+a3e+a4e+a 1e+a2e+a3e+a4e+a 1e+a2e+a3e+a4e+a 1e+a2e+a3e+a4e+a

  E                A                E       B        E       B
G|----------------|----------------|----------------|----------------|
D|----------------|----------------|2-2~--2---------|2-2~--2---------|
A|----------------|0-0-0-0-0-0-0-0-|--------2-2~--2-|----------222222|
E|0-0-0-0-0-0-0-0-|----------------|----------------|----------------|
  1e+a2e+a3e+a4e+a 1e+a2e+a3e+a4e+a 1e+a2e+a3e+a4e+a 1e+a2e+a3e+a4e+a

Verse 1:
  A                B       E        A                B       E
G|----------------|----------------|----------------|----------------|
D|----------------|--2~------------|----------------|--2~------------|
A|0-0-0-0-0-0-0-0-|2---------------|0-0-0-0-0-0-0-0-|2---------------|
E|----------------| -------0-0-0-0-|----------------| -------0-0-0-0-|
  1e+a2e+a3e+a4e+a 1e+a2e+a3e+a4e+a 1e+a2e+a3e+a4e+a 1e+a2e+a3e+a4e+a 

  A      E         B      E         A      E         B
G|----------------|----------------|----------------|----------------|
D|----------------|----------------|----------------|----------------|
A|0-0-0-0---------|2-2-2-2---------|0-0-0-0---------|2-2-2-2-2-2-2-2-|
E|--------0-0-0-0-|--------0-0-0-0-|--------0-0-0-0-|----------------|
  1e+a2e+a3e+a4e+a 1e+a2e+a3e+a4e+a 1e+a2e+a3e+a4e+a 1e+a2e+a3e+a4e+a

  A                C                E                B
G|----------------|----------------|----------------|----------------|
D|----------------|----------------|----------------|----------------|
A|0-0-0-0-0-0-0-0-|3-3-3-3-3-3-3-3-|----------------|2-2-2-2-2-2-2-2-|
E|----------------|----------------|0-0-0-0-0-0-0-0-|----------------|
  1e+a2e+a3e+a4e+a 1e+a2e+a3e+a4e+a 1e+a2e+a3e+a4e+a 1e+a2e+a3e+a4e+a 

  A                C                E                B
G|----------------|----------------|----------------|----------------|
D|----------------|----------------|2-2-2-2-2-2-2-2-|----------------|
A|0-0-0-0-0-0-0-0-|3---3---3---3---|----------------|2-2-2-2-2-2-2-2-|
E|----------------|----------------|----------------|----------------|
  1e+a2e+a3e+a4e+a 1e+a2e+a3e+a4e+a 1e+a2e+a3e+a4e+a 1e+a2e+a3e+a4e+a 

Bridge Ver 1:
  A                C
G|----------------|----------------|
D|----------------|----------------|
A|0-0-0-0-0-0-0-0-|3---------------| <--barely can hear, mixed in poorly.
E|----------------|------------2320|
  1e+a2e+a3e+a4e+a 1e+a2e+a3e+a4e+a 

Chorus Ver 1:
  E                A                E                B 
G|----------------|----------------|----------------|----------------|
D|----------------|----------------|2-2-2-2-2-2-2-2-|--0---0---0-2-0-|
A|----------------|0-0-0-0-0-0-0-0-|----------------|2---2---2-------|
E|0-0-0-0-0-0-0-0-|----------------|----------------|----------------|
  1e+a2e+a3e+a4e+a 1e+a2e+a3e+a4e+a 1e+a2e+a3e+a4e+a 1e+a2e+a3e+a4e+a

  E                A                E       B        E       B
G|----------------|----------------|----------------|----------------|
D|----------------|----------------|2-2~--2---------|2-2~--2---------|
A|----------------|0-0-0-0-0-0-0-0-|--------2-2~--2-|----------222222|
E|0-0-0-0-0-0-0-0-|----------------|----------------|----------------|
  1e+a2e+a3e+a4e+a 1e+a2e+a3e+a4e+a 1e+a2e+a3e+a4e+a 1e+a2e+a3e+a4e+a

Verse 2:
  A                B       E        A                B       E
G|----------------|----------------|----------------|----------------|
D|----------------|----------------|----------------|----------------|
A|0-0-0-0-0-0-0-0-|2-2-2-2---------|0-0-0-0-0-0-0-0-|2-2-2-2---------|
E|----------------| -------0-0-0-0-|----------------| -------0-0-0-0-|
  1e+a2e+a3e+a4e+a 1e+a2e+a3e+a4e+a 1e+a2e+a3e+a4e+a 1e+a2e+a3e+a4e+a 

  A      E         B      E         A      E         B
G|----------------|----------------|----------------|----------------|
D|----------------|----------------|----------------|----------------|
A|0-0-0-0---------|2-2-2-2---------|0-0-0-0---------|2-2-2-2-2-2-2-2-|
E|--------0-0-0-0-|--------0-0-0-0-|--------0-0-0-0-|----------------|
  1e+a2e+a3e+a4e+a 1e+a2e+a3e+a4e+a 1e+a2e+a3e+a4e+a 1e+a2e+a3e+a4e+a

  A                C                E                B
G|----------------|----------------|----------------|----------------|
D|----------------|----------------|----------------|----------------|
A|0-0-0-0-0-0-0-0-|3-3-3-3-3-3-3-3-|----------------|2-2-2-2-2-2-3-2-|
E|----------------|----------------|0-0-0-0-0-0-0-0-|----------------|
  1e+a2e+a3e+a4e+a 1e+a2e+a3e+a4e+a 1e+a2e+a3e+a4e+a 1e+a2e+a3e+a4e+a 

  A                C                E                B
G|----------------|----------------|----------------|----------------|
D|----------------|----------------|2-2-2-2-2-2-2-2-|----------------|
A|0-0-0-0-0-0-0-0-|3---3---3---3---|----------------|2-2-2-2-2-2-2-2-|
E|----------------|----------------|----------------|----------------|
  1e+a2e+a3e+a4e+a 1e+a2e+a3e+a4e+a 1e+a2e+a3e+a4e+a 1e+a2e+a3e+a4e+a 

Bridge Ver 2:
  A                C
G|----------------|----------------|
D|----------------|----------------|
A|0-0-0-0-0-0-0-0-|3---------------|
E|----------------|----------------|
  1e+a2e+a3e+a4e+a 1e+a2e+a3e+a4e+a 

Chorus Ver 2:
  E                A                E                B 
G|----------------|----------------|----------------|-------------0--|
D|----------------|----------------|2-2-2-2-2-2-2-2-|--0-2-0-2---3-3-|
A|----------------|0-0-0-0-0-0-0-0-|----------------|2---------------|
E|0-0-0-0-0-0-0-0-|----------------|----------------|----------------|
  1e+a2e+a3e+a4e+a 1e+a2e+a3e+a4e+a 1e+a2e+a3e+a4e+a 1e+a2e+a3e+a4e+a

  E                A                E       B        E       B
G|----------------|----------------|----------------|----------------|
D|----------------|----------------|2-2~--2---------|2-2~--2---------|
A|----------------|0-0-0-0-0-0-0-0-|--------2-2~--2-|----------222222|
E|0-0-0-0-0-0-0-0-|----------------|----------------|----------------|
  1e+a2e+a3e+a4e+a 1e+a2e+a3e+a4e+a 1e+a2e+a3e+a4e+a 1e+a2e+a3e+a4e+a

Chorus Ver 3:
  E                A                E                B 
G|----------------|----------------|----------------|-------------0--|
D|----------------|----------------|2-2-2-2-2-2-2-2-|--0-2-0-2---3-3-|
A|----------------|0-0-0-0-0-0-0-0-|----------------|2---------------|
E|0-0-0-0-0-0-0-0-|----------------|----------------|----------------|
  1e+a2e+a3e+a4e+a 1e+a2e+a3e+a4e+a 1e+a2e+a3e+a4e+a 1e+a2e+a3e+a4e+a

  E                A                E       B        E       B
G|----------------|----------------|----------------|----------------|
D|----------------|----------------|2-2-2-2---------|2-2-2-2---------|
A|----------------|0-0-0-0-0-0-0-0-|--------2-2-2-2-|----------222222|
E|0-0-0-0-0-0-0-0-|----------------|----------------|----------------|
  1e+a2e+a3e+a4e+a 1e+a2e+a3e+a4e+a 1e+a2e+a3e+a4e+a 1e+a2e+a3e+a4e+a

Chorus Ver 4:
  E                A                E                B 
G|----------------|----------------|----------0~----|-------------0--|
D|----------------|----------------|2-2-2-2-3-----3-|--0-2-0-2---3-3-|
A|----------------|0-0-0-0-0-0-0-0-|----------------|2---------------|
E|0-0-0-0-0-0-0-0-|----------------|----------------|----------------|
  1e+a2e+a3e+a4e+a 1e+a2e+a3e+a4e+a 1e+a2e+a3e+a4e+a 1e+a2e+a3e+a4e+a

  E                A                E       B        E       B
G|----------------|----------------|----------------|----------------|
D|----------------|----------------|2-2~--2---------|2-2~--2---------|
A|----------------|0-0-0-0-0-0-0-0-|--------2-2~--2-|----------222222|
E|0-0-0-0-0-0-0-0-|----------------|----------------|----------------|
  1e+a2e+a3e+a4e+a 1e+a2e+a3e+a4e+a 1e+a2e+a3e+a4e+a 1e+a2e+a3e+a4e+a

Ending:
  E
G|----------------|
D|----------------|
A|----------------|
E|0-0-0-0-0-0-0-0-|
  1e+a2e+a3e+a4e+a





Comments


Popular Calibretto 13 tabs & chords
Creep Bass Tabs
Don't Go Into The Woods Chords
High 5 Chords
The Apple Song Chords
Creep Ukulele
Dont Go Into The Woods Ukulele
Fall Away Ukulele
Get A Life Ukulele
Goodbye Cruel World Ukulele
The Apple Song Ukulele


Song lyrics



↑ Back to top | Tablatures and chords are parodies/interpretations of the original songs. You may use it for private study, scholarship, research or language learning purposes only
© 2014 AZChords.com Contact us | Privacy policy | DMCA | Add/correct tabs | Request tabs | Top 50 tabs