>
 >
Stand Up

Stand Up Guitar Tabs

Caliban - Stand Up chords, tabs, tablatures, lyrics

Guitar lessons | Add/correct | Request | Top 50 tabs Artists:  A B C D E F G H I J K L M N O P Q R S T U V W X Y Z 0-9

Stand Up Guitar Tabs – Caliban

CD, Sheet music, Poster

Do you like Stand Up? Share with your friends now
Tabs
STAND UP
                             As recorded by Caliban
                 (From the 2004 Album THE OPPOSITE FROM WITHIN)

Words and Music by Caliban
Arranged by Caliban

Gtr I (C G C F A D) - 'Untitled'
Gtr II (C G C F A D) - 'Untitled'
Gtr III (C G C F A D) - 'Untitled'

   Intro
    Dancefight Q=166
    N.C.D5  N.D5      N.C.D5  F5E5D5E5  N.C.D5  N.D5      N.C.D5  F5E5D5E5
   4/4
    Gtrs I, II
        PM|   PM--|       PM--------|       PM|   PM--|       PM--------|
    E E E E E E E E   E E E E E E E E   E E E E E E E E   E E E E E E E E   4x
||------------------|-----------------|-----------------|-------------------||
||o-----------------|-----------------|-----------------|------------------o||
||--2-2-----2-------|-2-2-------------|-2-2-----2-------|-2-2---------------||
||--6-6-----6-------|-6-6-------------|-6-6-----6-------|-6-6---------------||
||o-----0-0---0-0-0-|-----0-0-3-2-0-2-|-----0-0---0-0-0-|-----0-0-3-2-0-2--o||
||------0-0---0-0-0-|-----0-0-3-2-0-2-|-----0-0---0-0-0-|-----0-0-3-2-0-2---||


   Verse
    D5
    PM------------------------|        PM-------
    E E S S S S E E S S S S   E H    E S S S S
||--------------------------|------------------|
||o-------------------------|------------------|
||--------------------------|------------------|
||--------------------------|------------------|
||o-0---0-0-0-0-0---0-0-0-0-|-0--------0-0-0-0-|
||--0---0-0-0-0-0---0-0-0-0-|-0--------0-0-0-0-|


                            (Bbsus2(G5)  Asus4
 -----------------------|
  E E S S S S E E S S S S   E E  E E E E Q
|-------------------------|------------------|
|-------------------------|------------------|
|-------------------------|------------------|
|-------------------------|-----10-----5-7---|
|-0---0-0-0-0-0---0-0-0-0-|---8------5---5---|
|-0---0-0-0-0-0---0-0-0-0-|-8------5-----7---|


  D5
  PM------------------------|        PM-------
  E E S S S S E E S S S S   E H    E S S S S
|-------------------------|------------------|
|-------------------------|------------------|
|-------------------------|------------------|
|-------------------------|------------------|
|-0---0-0-0-0-0---0-0-0-0-|-0--------0-0-0-0-|
|-0---0-0-0-0-0---0-0-0-0-|-0--------0-0-0-0-|


                       (Bbsus2(G5)  Asus4
 ---------------|
  E E S S S S E Q.     E E  E E E E Q
|--------------------|-------------------||
|--------------------|------------------o||
|--------------------|-------------------||
|--------------------|-----10-----5-7----||
|-0---0-0-0-0-0------|---8------5---5---o||
|-0---0-0-0-0-0------|-8------5-----7----||


    N.C.D5  N.D5      N.C.D5  F5E5D5E5  N.C.D5  N.D5
        PM|   PM--|       PM--------|       PM|   PM--|
    E E E E E E E E   E E E E E E E E   E E E E E E E E
||------------------|-----------------|-----------------|
||o-----------------|-----------------|-----------------|
||--2-2-----2-------|-2-2-------------|-2-2-----2-------|
||--6-6-----6-------|-6-6-------------|-6-6-----6-------|
||o-----0-0---0-0-0-|-----0-0-3-2-0-2-|-----0-0---0-0-0-|
||------0-0---0-0-0-|-----0-0-3-2-0-2-|-----0-0---0-0-0-|


  1.                  2.
  N.C.D5  F5E5D5E5    N.C.D5  F5E5D5
      PM--------|         PM------|
  E E E E E E E E     E E E E E E E E
|------------------||-------------------||
|-----------------o||-------------------||
|-2-2--------------||-2-2---------------||
|-6-6--------------||-6-6---------------||
|-----0-0-3-2-0-2-o||-----0-0-3-2-0-0---||
|-----0-0-3-2-0-2--||-----0-0-3-2-0-0---||


   Pre-Chorus
    D5              C5                    D5
        PM--------|           PM--------|
    +E  E E E E E E  E    +E  E E E E E E  E
||---------------------|---------------------|
||o--------------------|---------------------|
||---------------------|---------------------|
||---------------------|---------------------|
||o-(0)-------------10-|-(10)-------------12-|
||--(0)-0-0-0-0-0-0-10-|-(10)-0-0-0-0-0-0-12-|


                   C5              Bb5    D5
       PM--------|               PM     PM
   +E  E E E E E E  E    +E   E  E Q  E E E
|---------------------|----------------------|
|---------------------|----------------------|
|---------------------|----------------------|
|---------------------|----------------------|
|-(12)-------------10-|-(10)-10----8--8---0--|
|-(12)-0-0-0-0-0-0-10-|-(10)-10-10-8--8-0-0--|


  D5              C5              C5 D5   Bb5                 C5
      PM--------|           PM--|       PM        PM--------|
  +E  E E E E E E  E    +E  E E E  E  E E E   +E  E E E E E E  E
|--------------------|----------------------|--------------------|
|--------------------|----------------------|--------------------|
|--------------------|----------------------|--------------------|
|--------------------|----------------------|--------------------|
|-(0)-------------10-|-(10)-------10S12---8-|-(8)-------------10-|
|-(0)-0-0-0-0-0-0-10-|-(10)-0-0-0-10S12-0-8-|-(8)-8-8-8-8-8-8-10-|


                     Bb5 D5    N.C.
           PM          PM
   +E   E  E  E  +E  E E E     E E E E E E E E
|---------------------------||------------------||
|--------------------------o||------------------||
|---------------------------||-2-2-2-2-2-2-2-2\-||
|---------------------------||-6-6-6-6-6-6-6-6\-||
|-(10)-10----10-(10)S8---0-o||------------------||
|-(10)-10-10-10-(10)S8-0-0--||------------------||


   Chorus
    D5            N.C.
    Gtr III
    Q  Q  Q  Q     Q     Q     Q     Q
||--------8-----|--8----------------------|
||o----6-----6--|--------6-----------6----|
||--7-----------|--------------7----------|
||--------------|-------------------------|
||o-------------|-------------------------|
||--------------|-------------------------|
|
|   Gtr I
|   W              E  E  E  E  E  E  E  E
||--------------|-------------------------|
||o-------------|-------------------------|
||--------------|-14-14-14-12-12-12-10-10-|
||--------------|--x--x--x--x--x--x--x--x-|
||o-0-----------|-12-12-12-10-10-10--8--8-|
||--0-----------|-------------------------|
|
|   Gtr II
|   W              E  E  E  E  E  E  E  E
||--------------|-------------------------|
||o-------------|-------------------------|
||--------------|-10-10-10--9--9--9--7--7-|
||--------------|--x--x--x--x--x--x--x--x-|
||o-0-----------|--8--8--8--7--7--7--5--5-|
||--0-----------|-------------------------|


  Bb5        N.C.
  W           W
|-8--------|-(8)-----------------------|
|-6--------|-(6)-----------------------|
|-7--------|-(7)-----------------------|
|----------|---------------------------|
|----------|---------------------------|
|----------|---------------------------|
|
| W           E   E  E  E  E  E  E  E
|----------|---------------------------|
|----------|---------------------------|
|----------|-14--14-14-10-10-10-12-12--|
|----------|--x---x--x--x--x--x--x--x--|
|-8--------|-12--12-12--8--8--8-10-10--|
|-8--------|---------------------------|
|
| W           E   E  E  E  E  E  E  E
|----------|---------------------------|
|----------|---------------------------|
|----------|-10--10-10--7--7--7--9--9--|
|----------|--x---x--x--x--x--x--x--x--|
|-8--------|--8---8--8--5--5--5--7--7--|
|-8--------|---------------------------|


  F5            N.C.
  Q  Q  Q  Q     Q     Q     Q     Q
|-------8-----|--8----------------------|
|----6-----6--|--------6-----------6----|
|-7-----------|--------------7----------|
|-------------|-------------------------|
|-------------|-------------------------|
|-------------|-------------------------|
|
| W              E  E  E  E  E  E  E  E
|-------------|-------------------------|
|-------------|-------------------------|
|-------------|-15-15-15-14-14-14-12-12-|
|-------------|--x--x--x--x--x--x--x--x-|
|-3-----------|-13-13-13-12-12-12-10-10-|
|-3-----------|-------------------------|
|
| W              E  E  E  E  E  E  E  E
|-------------|-------------------------|
|-------------|-------------------------|
|-------------|-12-12-12-10-10-10--9--9-|
|-------------|--x--x--x--x--x--x--x--x-|
|-3-----------|-10-10-10--8--8--8--7--7-|
|-3-----------|-------------------------|


  C5          N.C.
   W           W
|--8--------|-(8)-----------------------||
|--6--------|-(6)----------------------o||
|--7--------|-(7)-----------------------||
|-----------|---------------------------||
|-----------|--------------------------o||
|-----------|---------------------------||
|
|  W           E   E  E  E  E  E  E  E
|-----------|---------------------------||
|-----------|--------------------------o||
|-----------|-14--14-14-12-12-12-10-10--||
|-----------|--x---x--x--x--x--x--x--x--||
|-10--------|-12--12-12-10-10-10--8--8-o||
|-10--------|---------------------------||
|
|  W           E   E  E  E  E  E  E  E
|-----------|---------------------------||
|-----------|--------------------------o||
|-----------|-10--10-10--9--9--9--7--7--||
|-----------|--x---x--x--x--x--x--x--x--||
|-10--------|--8---8--8--7--7--7--5--5-o||
|-10--------|---------------------------||


   Breakdown
    N.C.
    Gtrs I, II
    E E Q  E E Q    E E Q  E E Q
||----------------|---------------|
||o---------------|---------------|
||----------------|---------------|
||----------------|---------------|
||o---------------|---------------|
||--0-1-1--4-1-1--|-0-1-1--4-1-0--|


  D5              Dsus2     D5              Dsus2
  PM------------|           PM------------|
  S S S S S S S S E. E. E   S S S S S S S S E. E. E    4x
|-------------------------|----------------------------||
|-------------------------|---------------------------o||
|-----------------9--9--9-|-----------------9--9--9----||
|-----------------7--7--7-|-----------------7--7--7----||
|-0-0-0-0-0-0-0-0-5--5--5-|-0-0-0-0-0-0-0-0-5--5--5---o||
|-0-0-0-0-0-0-0-0---------|-0-0-0-0-0-0-0-0------------||


    D5
    Gtr I
    PM------------------------|          PM-------
    E E S S S S E E S S S S    E  H    E S S S S
||--------------------------|--------------------|
||o-------------------------|--------------------|
||--------------------------|--------------------|
||--------------------------|--------------------|
||o-0---0-0-0-0-0---0-0-0-0-|--0---------0-0-0-0-|
||--0---0-0-0-0-0---0-0-0-0-|--0---------0-0-0-0-|
|
|   Gtr II
|   W                         +W
||--------------------------|--------------------|
||o-------------------------|--------------------|
||--------------------------|--------------------|
||--------------------------|--------------------|
||o-0-----------------------|-(0)----------------|
||--0-----------------------|-(0)----------------|


                              (Bbsus2(G5)  Asus4
 -------------------------|
   E  E S S S S E E S S S S   E E  E E E E Q
|---------------------------|-------------------||
|---------------------------|------------------o||
|---------------------------|-------------------||
|---------------------------|-----10-----5-7----||
|--0----0-0-0-0-0---0-0-0-0-|---8------5---5---o||
|--0----0-0-0-0-0---0-0-0-0-|-8------5-----7----||
|
| +W                          E E  E E E E Q
|---------------------------|-------------------||
|---------------------------|------------------o||
|---------------------------|-------------------||
|---------------------------|-----10-----5-7----||
|-(0)-----------------------|---8------5---5---o||
|-(0)-----------------------|-8------5-----7----||


   Verse
    D5
    Gtrs I, II
    PM------------------------|        PM-------
    E E S S S S E E S S S S   E H    E S S S S
||--------------------------|------------------|
||o-------------------------|------------------|
||--------------------------|------------------|
||--------------------------|------------------|
||o-0---0-0-0-0-0---0-0-0-0-|-0--------0-0-0-0-|
||--0---0-0-0-0-0---0-0-0-0-|-0--------0-0-0-0-|


                            1.                  2.
                            (Bbsus2(G5)  Asus4  (Bbsus2(G5)  AsD54
 -----------------------|
  E E S S S S E E S S S S   E E  E E E E Q      E E  E E E E E E
|-------------------------|------------------||---------------------||
|-------------------------|-----------------o||---------------------||
|-------------------------|------------------||---------------------||
|-------------------------|-----10-----5-7---||-----10-----5-7------||
|-0---0-0-0-0-0---0-0-0-0-|---8------5---5--o||---8------5---5-0----||
|-0---0-0-0-0-0---0-0-0-0-|-8------5-----7---||-8------5-----7-0----||


   Pre-Chorus
    D5              C5                    D5
        PM--------|           PM--------|
    +E  E E E E E E  E    +E  E E E E E E  E
||---------------------|---------------------|
||o--------------------|---------------------|
||---------------------|---------------------|
||---------------------|---------------------|
||o-(0)-------------10-|-(10)-------------12-|
||--(0)-0-0-0-0-0-0-10-|-(10)-0-0-0-0-0-0-12-|


                   C5              Bb5    D5
       PM--------|               PM     PM
   +E  E E E E E E  E    +E   E  E Q  E E E
|---------------------|----------------------|
|---------------------|----------------------|
|---------------------|----------------------|
|---------------------|----------------------|
|-(12)-------------10-|-(10)-10----8--8---0--|
|-(12)-0-0-0-0-0-0-10-|-(10)-10-10-8--8-0-0--|


  D5              C5              C5 D5   Bb5                 C5
      PM--------|           PM--|       PM        PM--------|
  +E  E E E E E E  E    +E  E E E  E  E E E   +E  E E E E E E  E
|--------------------|----------------------|--------------------|
|--------------------|----------------------|--------------------|
|--------------------|----------------------|--------------------|
|--------------------|----------------------|--------------------|
|-(0)-------------10-|-(10)-------10S12---8-|-(8)-------------10-|
|-(0)-0-0-0-0-0-0-10-|-(10)-0-0-0-10S12-0-8-|-(8)-8-8-8-8-8-8-10-|


                     Bb5 D5    N.C.
           PM          PM
   +E   E  E  E  +E  E E E     E E E E E E E E
|---------------------------||------------------||
|--------------------------o||------------------||
|---------------------------||-2-2-2-2-2-2-2-2\-||
|---------------------------||-6-6-6-6-6-6-6-6\-||
|-(10)-10----10-(10)S8---0-o||------------------||
|-(10)-10-10-10-(10)S8-0-0--||------------------||


   Chorus
    D5            N.C.
    Gtr III
    Q  Q  Q  Q     Q     Q     Q     Q
||--------8-----|--8----------------------|
||o----6-----6--|--------6-----------6----|
||--7-----------|--------------7----------|
||--------------|-------------------------|
||o-------------|-------------------------|
||--------------|-------------------------|
|
|   Gtr I
|   W              E  E  E  E  E  E  E  E
||--------------|-------------------------|
||o-------------|-------------------------|
||--------------|-14-14-14-12-12-12-10-10-|
||--------------|--x--x--x--x--x--x--x--x-|
||o-0-----------|-12-12-12-10-10-10--8--8-|
||--0-----------|-------------------------|
|
|   Gtr II
|   W              E  E  E  E  E  E  E  E
||--------------|-------------------------|
||o-------------|-------------------------|
||--------------|-10-10-10--9--9--9--7--7-|
||--------------|--x--x--x--x--x--x--x--x-|
||o-0-----------|--8--8--8--7--7--7--5--5-|
||--0-----------|-------------------------|


  Bb5        N.C.
  W           W
|-8--------|-(8)-----------------------|
|-6--------|-(6)-----------------------|
|-7--------|-(7)-----------------------|
|----------|---------------------------|
|----------|---------------------------|
|----------|---------------------------|
|
| W           E   E  E  E  E  E  E  E
|----------|---------------------------|
|----------|---------------------------|
|----------|-14--14-14-10-10-10-12-12--|
|----------|--x---x--x--x--x--x--x--x--|
|-8--------|-12--12-12--8--8--8-10-10--|
|-8--------|---------------------------|
|
| W           E   E  E  E  E  E  E  E
|----------|---------------------------|
|----------|---------------------------|
|----------|-10--10-10--7--7--7--9--9--|
|----------|--x---x--x--x--x--x--x--x--|
|-8--------|--8---8--8--5--5--5--7--7--|
|-8--------|---------------------------|


  F5            N.C.
  Q  Q  Q  Q     Q     Q     Q     Q
|-------8-----|--8----------------------|
|----6-----6--|--------6-----------6----|
|-7-----------|--------------7----------|
|-------------|-------------------------|
|-------------|-------------------------|
|-------------|-------------------------|
|
| W              E  E  E  E  E  E  E  E
|-------------|-------------------------|
|-------------|-------------------------|
|-------------|-15-15-15-14-14-14-12-12-|
|-------------|--x--x--x--x--x--x--x--x-|
|-3-----------|-13-13-13-12-12-12-10-10-|
|-3-----------|-------------------------|
|
| W              E  E  E  E  E  E  E  E
|-------------|-------------------------|
|-------------|-------------------------|
|-------------|-12-12-12-10-10-10--9--9-|
|-------------|--x--x--x--x--x--x--x--x-|
|-3-----------|-10-10-10--8--8--8--7--7-|
|-3-----------|-------------------------|


  C5          N.C.
   W           W
|--8--------|-(8)-----------------------||
|--6--------|-(6)----------------------o||
|--7--------|-(7)-----------------------||
|-----------|---------------------------||
|-----------|--------------------------o||
|-----------|---------------------------||
|
|  W           E   E  E  E  E  E  E  E
|-----------|---------------------------||
|-----------|--------------------------o||
|-----------|-14--14-14-12-12-12-10-10--||
|-----------|--x---x--x--x--x--x--x--x--||
|-10--------|-12--12-12-10-10-10--8--8-o||
|-10--------|---------------------------||
|
|  W           E   E  E  E  E  E  E  E
|-----------|---------------------------||
|-----------|--------------------------o||
|-----------|-10--10-10--9--9--9--7--7--||
|-----------|--x---x--x--x--x--x--x--x--||
|-10--------|--8---8--8--7--7--7--5--5-o||
|-10--------|---------------------------||


    D5                N.C.
    Q   Q   Q   Q      Q     Q     Q     Q
||----------8-------|--8----------------------|
||o-----6-------6---|--------6-----------6----|
||--7---------------|--------------7----------|
||------------------|-------------------------|
||o-----------------|-------------------------|
||------------------|-------------------------|
|
|   E E E E E E E E    E  E  E  E  E  E  E  E
||------------------|-------------------------|
||o-----------------|-------------------------|
||------------------|-14-14-14-12-12-12-10-10-|
||------------------|--x--x--x--x--x--x--x--x-|
||o-0-0-0-0-0-0-0-0-|-12-12-12-10-10-10--8--8-|
||--0-0-0-0-0-0-0-0-|-------------------------|
|
|   E E E E E E E E    E  E  E  E  E  E  E  E
||------------------|-------------------------|
||o-----------------|-------------------------|
||------------------|-10-10-10--9--9--9--7--7-|
||------------------|--x--x--x--x--x--x--x--x-|
||o-0-0-0-0-0-0-0-0-|--8--8--8--7--7--7--5--5-|
||--0-0-0-0-0-0-0-0-|-------------------------|


  Bb5               N.C.
  W                  W
|-8---------------|-(8)-----------------------|
|-6---------------|-(6)-----------------------|
|-7---------------|-(7)-----------------------|
|-----------------|---------------------------|
|-----------------|---------------------------|
|-----------------|---------------------------|
|
| E E E E E E E E    E   E  E  E  E  E  E  E
|-----------------|---------------------------|
|-----------------|---------------------------|
|-----------------|-14--14-14-10-10-10-12-12--|
|-----------------|--x---x--x--x--x--x--x--x--|
|-8-8-8-8-8-8-8-8-|-12--12-12--8--8--8-10-10--|
|-8-8-8-8-8-8-8-8-|---------------------------|
|
| E E E E E E E E    E   E  E  E  E  E  E  E
|-----------------|---------------------------|
|-----------------|---------------------------|
|-----------------|-10--10-10--7--7--7--9--9--|
|-----------------|--x---x--x--x--x--x--x--x--|
|-8-8-8-8-8-8-8-8-|--8---8--8--5--5--5--7--7--|
|-8-8-8-8-8-8-8-8-|---------------------------|


  G5                N.C.
  Q   Q   Q   Q      Q     Q     Q     Q
|---------8-------|--8----------------------|
|-----6-------6---|--------6-----------6----|
|-7---------------|--------------7----------|
|-----------------|-------------------------|
|-----------------|-------------------------|
|-----------------|-------------------------|
|
| E E E E E E E E    E  E  E  E  E  E  E  E
|-----------------|-------------------------|
|-----------------|-------------------------|
|-----------------|-15-15-15-14-14-14-12-12-|
|-----------------|--x--x--x--x--x--x--x--x-|
|-3-3-3-3-3-3-3-3-|-13-13-13-12-12-12-10-10-|
|-3-3-3-3-3-3-3-3-|-------------------------|
|
| E E E E E E E E    E  E  E  E  E  E  E  E
|-----------------|-------------------------|
|-----------------|-------------------------|
|-----------------|-12-12-12-10-10-10--9--9-|
|-----------------|--x--x--x--x--x--x--x--x-|
|-3-3-3-3-3-3-3-3-|-10-10-10--8--8--8--7--7-|
|-3-3-3-3-3-3-3-3-|-------------------------|


  D5                        N.C.
   W                         W
|--8----------------------|-(8)-----------------------||
|--6----------------------|-(6)----------------------o||
|--7----------------------|-(7)-----------------------||
|-------------------------|---------------------------||
|-------------------------|--------------------------o||
|-------------------------|---------------------------||
|
|  E  E  E  E  E  E  E  E    E   E  E  E  E  E  E  E
|-------------------------|---------------------------||
|-------------------------|--------------------------o||
|-------------------------|-14--14-14-12-12-12-10-10--||
|-------------------------|--x---x--x--x--x--x--x--x--||
|-10-10-10-10-10-10-10-10-|-12--12-12-10-10-10--8--8-o||
|-10-10-10-10-10-10-10-10-|---------------------------||
|
|  E  E  E  E  E  E  E  E    E   E  E  E  E  E  E  E
|-------------------------|---------------------------||
|-------------------------|--------------------------o||
|-------------------------|-10--10-10--9--9--9--7--7--||
|-------------------------|--x---x--x--x--x--x--x--x--||
|-10-10-10-10-10-10-10-10-|--8---8--8--7--7--7--5--5-o||
|-10-10-10-10-10-10-10-10-|---------------------------||


 Outro
  D5
  Gtrs I, II
          PM----|
  H.      S S S S   E H..
|-----------------|----------*|
|-----------------|----------*|
|-----------------|----------*|
|-----------------|----------*|
|-0-------0-0-0-0-|-0--------*|
|-0-------0-0-0-0-|-0--------*|


Duration Legend
---------------
W - whole; H - half; Q - quarter; E - 8th; S - 16th; T - 32nd; X - 64th; a - acciaccatura
+ - note tied to previous; . - note dotted; .. - note double dotted
Uncapitalized letters represent notes that are staccato (1/2 duration)
Irregular groupings are notated above the duration line
Duration letters will always appear directly above the note/fret number it represents the
duration for.  Duration letters with no fret number below them represent rests.  Multi-
bar rests are notated in the form Wxn, where n is the number of bars to rest for.  Low
melody durations appear below the staff

Tablature Legend
----------------
 h   - hammer-on
 p   - pull-off
 b   - bend
 pb  - pre-bend
 r   - bend release (if no number after the r, then release immediately)
 /\  - slide into or out of (from/to "nowhere")
 s   - legato slide
 S   - shift slide
  - natural harmonic
[n]  - artificial harmonic
n(n) - tapped harmonic
 ~   - vibrato
 tr  - trill
 T   - tap
 TP  - trem. picking
 PM  - palm muting
\n/  - tremolo bar dip; n = amount to dip
 \n  - tremolo bar down
 n/  - tremolo bar up
/n\  - tremolo bar inverted dip
 =   - hold bend; also acts as connecting device for hammers/pulls
   - volume swell (louder/softer)
 x   - on rhythm slash represents muted slash
 o   - on rhythm slash represents single note slash

Misc Legend
-----------
 |  - bar
||  - double bar
||o - repeat start
o|| - repeat end
*|  - double bar (ending)
 :  - bar (freetime)
 $  - Segno
 &  - Coda
Tempo markers -  = BPM(8/16=s8/s16), where s8 = swing 8ths, s16 = swing 16ths


***************************************************************************************
***************************************************************************************





Comments


Popular Caliban tabs & chords
Fire Of Night Bass Tabs
Tyranny Of Small Misery Bass Tabs
Arena Of Concliment Tabs
Beloved And The Hatred 2 Tabs
It's Our Burden To Bleed 2 Tabs
My Fiction Beauty Tabs
My Fiction Beauty 1 Tabs
No More 2nd Chances Tabs
Seventh Soul Tabs
Vicious Circle Tabs


Song lyrics



↑ Back to top | Tablatures and chords are parodies/interpretations of the original songs. You may use it for private study, scholarship, research or language learning purposes only
© 2014 AZChords.com Contact us | Privacy policy | DMCA | Add/correct tabs | Request tabs | Top 50 tabs