» » »

Caliban, Song About Killing Tabs (ver.2)

Artists:  A B C D E F G H I J K L M N O P Q R S T U V W X Y Z # 

Song About Killing Tabs (ver.2)

Caliban Tabs
 Rating:
4/5 (4 votes)
Song About Killing lessons Tabs too difficult? Try these video lessons and learn fast
1
                This is Song About Killing by Caliban
it may not sound good cause i use CGCFAD tuning
and i really dont know what they use so...

comment rate do whatever you want

             
|-------------------------------------------|----------------|
|-------------------------------------------|----------------|
|-------------------------------------------|----------------|   
|-------------------------------------------|--7-------------|
|-----7-9-------10-8---------------7-9------|---8---9-10-8---|
|0-0-0---0-000-0----0000-0000-0-0-0---0-000-|-----7----------|

|---------------------------------|
|---------------------------------|
|---------------------------------|   
|---------------------------------|
|-----7-9-------10-8----------0---|
|0-0-0---0-000-0----0000-0000-0---|

|-------------------------------------------|----------------|
|-------------------------------------------|----------------|
|-------------------------------------------|----------------|   X4
|-------------------------------------------|--7-------------|
|-----7-9-------10-8---------------7-9------|---8---9-10-8---|
|0-0-0---0-000-0----0000-0000-0-0-0---0-000-|-----7----------|

|------------------------------------------------------------------------|
|------------------------------------------------------------------------|
|------------------------------------------------------------------------|   X2
|---------------------------1-----3----------------------------3-----1---|
|---------------------1-----1-----3----------------------1-----3-----1---|
|-00-00-0-0-0-000-000-1-000---000----00-00-0-0-0-000-000-1-000---000-----|
  .. .. . . . ... ... . ...   ...    .. .. . . . ... ... . ...   ...

|-------------------------------------------------------------------------------|
|-------------------------------------------------------------------------------|
|-------------------------------------------------------------------------------|
|---------------7-5-3-5-7-5---------------7-3-5-7-5-3---------------7-5-3-5-7-5-|
|-5-0-0-0-0-0-0-------------7-5-5-5-5-5-5-------------5-0-0-0-0-0-0-------------|
|-5-0-0-0-0-0-0-------------7-5-5-5-5-5-5-------------5-0-0-0-0-0-0-------------|
  . . . . . . .             . . . . . . .             . . . . . . .

|------------------------|
|------------------------|
|------------------------|
|---------------9-7-6----|
|-5-0-0-0-0-0-0----------|
|-5-0-0-0-0-0-0----------|
  . . . . . . .         

|--------------------------------------------------------|
|--------------------------------------------------------|
|--------------------------------------------------------|    X4
|------------------------------------------7-------------|
|-----7-9-------10-8---------------7-9------8---9-10-8---|
|0-0-0---0-000-0----0000-0000-0-0-0---0-000---7----------|

|------------------------------------------------------------------------|
|------------------------------------------------------------------------|
|------------------------------------------------------------------------|
|---------------------------1-----3----------------------------3-----1---|   X2
|---------------------------1-----3----------------------------3-----1---|
|-00-00-0-0-0-000-000-1-000---000----00-00-0-0-0-000-000-1-000---000-----|

|-------------------------------------------------------------------------------|
|-------------------------------------------------------------------------------|
|-------------------------------------------------------------------------------|
|---------------7-5-3-5-7-5---------------7-3-5-7-5-3---------------7-5-3-5-7-5-|
|-5-0-0-0-0-0-0-------------7-5-5-5-5-5-5-------------5-0-0-0-0-0-0-------------|
|-5-0-0-0-0-0-0-------------7-5-5-5-5-5-5-------------5-0-0-0-0-0-0-------------|
  . . . . . . .             . . . . . . .             . . . . . . .

|------------------------|
|------------------------|
|------------------------|
|---------------9-7-6----|
|-5-0-0-0-0-0-0----------|
|-5-0-0-0-0-0-0----------|
  . . . . . . .         


|----------------------------------------------------|
|----------------------------------------------------|
|-----9-7-10-8------9-7-10-8-----9-7-10-8------------|
|--7-------------7------------7-------------7--------|
|--7-------------7------------7-------------7--------|
|--5-------------5------------5-------------5--------|

|--------------------------------------------------|
|--------------------------------------------------|
|--------------------------------------------------|  X2
|------------7-9-----11-9-----------7-9-3-4-5------|
|--5-5-5-5-5-----5-5------5-5-5-5-5----------------|
|--5-5-5-5-5-----5-5------5-5-5-5-5----------------|

|-------------------------------------------------|
|-------------------------------------------------|
|-------------------------------------------------|
|-5555555555555555-7777777777777777-9999-10101010-|   X2
|-3333333333333333-5555555555555555-7777-8-8-8-8--|
|-------------------------------------------------|

|--------------------------------------------------|
|--------------------------------------------------|
|--------------------------------------------------|
|------------7-9-----11-9-----------7-9-3-4-5------|   X4
|--5-5-5-5-5-----5-5------5-5-5-5-5----------------|
|--5-5-5-5-5-----5-5------5-5-5-5-5----------------|

|-------------------------------------------------------------------------------|
|-------------------------------------------------------------------------------|
|-------------------------------------------------------------------------------|
|---------------7-5-3-5-7-5---------------7-3-5-7-5-3---------------7-5-3-5-7-5-|
|-5-0-0-0-0-0-0-------------7-5-5-5-5-5-5-------------5-0-0-0-0-0-0-------------|
|-5-0-0-0-0-0-0-------------7-5-5-5-5-5-5-------------5-0-0-0-0-0-0-------------|
  . . . . . . .             . . . . . . .             . . . . . . .

|------------------------|
|------------------------|
|------------------------|
|---------------9-7-6----|
|-5-0-0-0-0-0-0----------|
|-5-0-0-0-0-0-0----------|
  . . . . . . .         

|--------------------------------------------------------|
|--------------------------------------------------------|
|--------------------------------------------------------|
|------------------------------------------7-------------|    X4
|-----7-9-------10-8---------------7-9------8---9-10-8---|
|0-0-0---0-000-0----0000-0000-0-0-0---0-000---7----------|
            
Submit corrections

comments powered by Disqus
↑ Back to top | Caliban Tabs for Song About Killing. Lyrics for acoustic guitar and electric guitar. 1 Tablatures and chords are parodies/interpretations of the original songs. You may use it for private study, scholarship, research or language learning purposes only